The Beatles

home > The Beatles

Girl Tab

The Beatles

Difficulty: EasyEasy

by Jekinha2

tuner correct add songbook print version text version save to e-mail
chordsukulelecavacokeyboardtabbassdrumsharmonicsflute Guitar Pro
chords

Girl

Year: 1965 - Album: Rubber Soul

Key:  Cm More
Girl Key GmGm
Girl Key G#mG#m
Girl Key AmAm
Girl Key A#mA#m(one step down)
Girl Key BmBm(half step down)
Girl Key CmCm(original key)
Girl Key C#mC#m(half step up)
Girl Key DmDm(one step up)
Girl Key D#mD#m
Girl Key EmEm
Girl Key FmFm
Girl Key F#mF#m
  		-------1-----3-----4--3--1--4--3--1-----1------ 
-4--1-----3-----4--------------------4-----4--3 
----------------------------------------------- 
----------------------------------------------- 
----------------------------------------------- 
----------------------------------------------- 
 
-------1-----3-----4--3--1--4--3--1-----1------ 
-4--1-----3-----4--------------------4-----4--3 
----------------------------------------------- 
----------------------------------------------- 
----------------------------------------------- 
----------------------------------------------- 
 
Giiiiirl... girl girl... 

	  

Search Paypal
auto scroll beats size up size down change color hide chords drawings
tab show chords e-chords YouTube Clip e-chords hide all tabs e-chords go to top tab