Cake

home > Cake

Never There Tab

Cake

Difficulty: AdvancedAdvanced

tuner correct add songbook print version text version save to e-mail
chordsukulelecavacokeyboardtabbassdrummharmonicsflute Guitar Pro
chords

Never There

(John McCrea)

  		
Riff:
 
e|------------------------------------------| 
B|------------------------------------------| 
G|------------------------------------------| 
D|--------------2-2---------2-2-----1-1-----| 
A|------------------0-0-3-3-----3-3-----2-2-| 
E|--0-0-0-0-3-3-----------------------------| 

Chorus: 

e|-------------------------------------| 
B|------5---------7-5------5------7-5--| 
G|----3---------5--------3------5------| 
D|--2---------7--------2------7--------| 
A|-------------------------------------| 
E|-------------------------------------| 

Pre-Solo: G5 F#5 E5 

Solo: D5 C5 B5 E5  

e|-12----------------------12----------14-15--------------| 
B|----12-13-12-13-12-13-12----12-13-12-------13-15p13/12--| 
G|--------------------------------------------------------| 
D|--------------------------------------------------------| 
A|--------------------------------------------------------| 
E|--------------------------------------------------------| 

e|-12----------------------12----------14-15-------| 
B|----12-13-12-13-12-13-12----12-13-12-------13-12-| 
G|-------------------------------------------------| 
D|-------------------------------------------------| 
A|-------------------------------------------------| 
E|-------------------------------------------------| 

Riff 2: 

e|-------------------------| 
B|-------------------------| 
G|-------------------------| 
D|------2-------2-----1----| 
A|--------0--3-----2----2--| 
E|--0-3--------------------| 

e|----------------------------| 
B|----------------------------| 
G|--4-4-4-4-------------------| 
D|--5-5-5-5-5/7-7-7-7-2-2-1-1-| 
A|----------7/9-9-9-9-3-3-2-2-| 
E|----------------------------| 

	  

Full key step upFull key step up
Half key step upHalf key step up
Half key step downHalf key step down
Full key step downFull key step down
Search Paypal
auto scroll beats size up size down change color hide chords drawings
tab show chords e-chords YouTube Clip e-chords hide all tabs e-chords go to top tab