The Beatles

home > The Beatles

Here Comes The Sun Tab

The Beatles

Difficulty: BeginnerBeginner

by Acelot

tuner correct add songbook print version text version save to e-mail
chordsukulelecavacokeyboardtabbassdrumsharmonicsflute Guitar Pro
chords

Here Comes The Sun

Year: 1969 - Album: Abbey Road

(George Harrison)

  		  

e|---------2-----0-------------2---0-----------|   
B|-----------------3---------------------3---0-|   
G|------2-----2-------------2----2----2--------|   
D|---0-------------------0---------------------|   
A|---------------------------------------------|   
E|-------------------------------------------3-|   

e|-------------------|   
B|--3---2---0--3---5-|   
G|------2-2----4---6-|   
D|-------------------|   
A|------0------2---4-|   
E|-------------------|   

e|---------2-----0---2-------------------2--0----2------------------|   
B|-------------------------3---------------------------3---6\5p3---3|   
G|------2-----2---------2-------------0--------0-------4---------4--|   
D|---0---------------------0---------------------------3------------|   
A|------------------------------------------------------------------|   
E|----------------------------------3------------------4------------|   

e|------2--0--------------------------------------------------2-|   
B|--------------3------------0---------0--------0---------2---3-|   
G|-----------2------------0---------2--------0---------0------2-|   
D|---0--------------------------------------------------------0-|   
A|--------------------------------------------------0-----------|   
E|---------------------3---------2--------0---------------------|   

Coda:   

e|--------------------------------------------------------0-|   
B|----------1----------0-----------0---------0------------0-|   
G|-------0----------0-----------0---------0----------2----2-|   
D|-------------------------------------------------2------2-|   
A|----3----------2-----------0-------------------0--------0-|   
E|-------------------------------------3--------------------|   


	  

Search Paypal
auto scroll beats size up size down change color hide chords drawings
tab show chords e-chords YouTube Clip e-chords hide all tabs e-chords go to top tab