The Beatles

home > The Beatles

Helter Skelter Bass Tab

The Beatles

Difficulty: AdvancedAdvanced

by josevtz

tuner correct add songbook print version text version save to e-mail
chordsukulelecavacokeyboardtabbassdrumsharmonicsflute Guitar Pro
chords

Helter Skelter

Year: 1968 - Album: The Beatles (The White Album)

(Lennon / Mc Cartney)

  		when I 
|----------|------------| 
|----------|------------| 
|----------|------------| 
|----------|------------| 
 
A % 
   get to the... 
|--9--9--9--9--9--9--9-----------------------| 
|--------------------------------------------| 
|-----------------------7--7--7--7--7--7--7--| 
|--------------------------------------------| 
 
   where I stop... 
|--9--9--9--9--9--9--9-----------------------| 
|--------------------------------------------| 
|-----------------------7--7--7--7--7--7--7--| 
|--------------------------------------------| 
 
   till I get...                                                                    TO CODA 1 
|--9--9--9--9--9--9--9--9-----------------------|----------------------------------------| 
|-----------------------------------------------|----------------------------------------| 
|--------------------------7--7--7--7--7--7--7--|----------------------------------2--5--| 
|-----------------------------------------------|--3---3---3---3---3---3--2--3--5--------| 
 
|---------------------------------------| 
|---------------------------------------| 
|--7---7---7---7---7--5--7--5--7--5--7--| 
|---------------------------------------| 
 
B 
   do you don't... 
|--------------------------------------------------| 
|--------------------------------------------------| 
|--7--7--7--7--7--7--7--7--7--7--7--7--7--7--7--5--| 
|--------------------------------------------------| 
 
|---------------------------------------------| 
|---------------------------------------------| 
|--7---7--7--7---7--7--7---7--7--7--7--7-P-5--| 
|---------------------------------------------| 
 
   coming down fast... 
|---------------------------------------------------| 
|---------------------------------------------------| 
|--7---7--7-5-H-7--7--7-P-5---7--7--7--7--7---7--7--| 
|---------------------------------------------------| 
 
|---------------------------------------------| 
|---------------------------------------------| 
|--7--7--7--7--7---7--7--7--7--7--7--7--7--7--| 
|---------------------------------------------| 
 
   tell me tell me... 
|---------------------------------------------| 
|---------------------------------------------| 
|--7---7--7---7---7--7--5-H-7--7--7--7--7--7--| 
|---------------------------------------------| 
 
   me the answer...                    may be a lover... 
|-----------------------------------|----------------------| 
|-----------------------------------|----------------------| 
|-----------------------------------|----------------------| 
|--3---3---3---3--3--3---3---3---3--|--5-------------------| 
 
|-----------------------------------------------| 
|-----------------------------------------------| 
|--5--7--7--7---7--7--7--7-7--7--7--7--7--7--7--| 
|-----------------------------------------------| 
 
C 
   helter skelter                          helter skelter 
|---------------------------------------|---------------------------------------| 
|*-----------------5--4-----------------|---------------------------------------| 
|*-----------------------7--5--4--------|------------------5--4--2--O-----------| 
|--5---5---5---5------------------7--5--|--O---O---O---O---------------4--2--O--| 
 
   helter skelter                         yeah         TO CODA 2 
|--------------------------------------|-------------| 
|-----------------5--4-----------------|-------------| 
|-----------------------7--5--4--------|-------------| 
|--5---5---5---5-----------------7--5--|--O----------| 
 
1____________________________________________________ 
|----------------------------------------------------| 
|----------------------------------------------------| 
|--7--7--7--7--7--7--7--7--7--7--7--7--5-H-7--5-H-7--| 
|----------------------------------------------------| 
 
|------------------------------------------------------| 
|------------------------------------------------------| 
|--7--7--7--7--7--7--7--7--5-H-7--5-H-7--5-H-7--5-H-7--| 
|------------------------------------------------------| 
 
D % 
   will you won't... 
|-----------------------------------------| 
|-----------------------------------------| 
|--7---7--7--7---7---7--7--7--7--7--7--7--| 
|-----------------------------------------| 
 
                                                    I'm 
|---------------------------------------------------------| 
|---------------------------------------------------------| 
|--5-H-7--7--7---5-H-7--7--7--5-H-7--5-H-7--5-H-7--5-H-7--| 
|---------------------------------------------------------| 
 
   coming down fast... 
|-----------------------------------------| 
|-----------------------------------------| 
|--7---7---7---7--7--7--7--7--7--7--7--7--| 
|-----------------------------------------| 
 
|------------------------------------------------| 
|------------------------------------------------| 
|--5-H-7--7--7--7--7--7--7-5-H-7--7--7--7--7--7--| 
|------------------------------------------------| 
 
   tell me tell me...                may be a lover... 
|---------------------------------|---------------------| 
|---------------------------------|---------------------| 
|---------------------------------|---------------------| 
|--3---3---3---3---3---3---3---3--|--5------------------| 
 
                               look out 
|-------------------------------------------------| 
|------------------------------------------------*| 
|--5-H-7--7--7--7--7--7--7--7--7--7--7--7--7--7--*| 
|-------------------------------------------------| 
 
2______________________________________________________ 
              look out             cause... 
|----9--9--9--9--9--9--9--9--9--9--9--9--9-P-7---------| 
|-----------------------------------------------9-P-7--| 
|------------------------------------------------------| 
|------------------------------------------------------| 
 
   comes 
|-----------------------------------------| 
|-----------------------------------------| 
|--5-H-7--7--7--7--7--7--7--7--5---4------| 
|--------------------------------------4--| 
 
E 
|------------------------------|------------------------------------------| 
|------------------------------|------------------------------------------| 
|------------------------------|--7--7--7--5-H-7--7--7--7--7--7--7--5-----| 
|--5---5--5--5--5--5--5--5--5--|---------------------------------------7--| 
 
                                      when I 
|--------------------------|------------------| 
|--------------------------|------------------| 
|--------------------------|--7---------------| 
|--5--5--5--5--5--5--5--5--|------------------| 
 
CODA 1 
|-------------------------------------------------| 
|-------------------------------------------------| 
|--7--7---7--7--7--5--5-H-7--5-H-7--5-H-7--5-H-7--| 
|-------------------------------------------------| 
 
F CODA 2 
   helter skelter 
|--------------------------------------------------| 
|--------------------------------------------------| 
|--7--7--7--7--7--7--7--7--7--7--7--7--7--7--7--7--| 
|--------------------------------------------------| 
 
   coming down fast 
|------------------------------------------------------| 
|------------------------------------------------------| 
|--7--7--7--7--7--7--7--7--5-H-7--5-H-7--5-H-7--5-H-7--| 
|------------------------------------------------------| 
 
   yes she is 
|------------------------------------------------------| 
|------------------------------------------------------| 
|--7--7--7--7--7--7--7--7--5-H-7--5-H-7--5-H-7--5-H-7--| 
|------------------------------------------------------| 
 
               yes she is 
|------------------------------------------------------| 
|------------------------------------------------------| 
|--7--7--7--7--7--7--7--7---------5-H-7---------5-H-7--| 
|--------------------------5-H-7---------5-H-7---------| 
 
               coming down fast 
|------------------------------------------------------| 
|------------------------------------------------------| 
|--7--7--7--7--7--7--7--7---------5-H-7---------5-H-7--| 
|--------------------------5-H-7---------5-H-7---------| 
 
                
|------------------------------------------------------| 
|------------------------------------------------------| 
|--7--7--7--7--7--7--7--7---------5-H-7---------5-H-7--| 
|--------------------------5-H-7---------5-H-7---------| 
 
               
|------------------------------------------------------| 
|------------------------------------------------------| 
|--7--7--7--7--7--7--7--7---------5-H-7---------5-H-7--| 
|--------------------------5-H-7---------5-H-7---------| 
 
                
|------------------------------------------------------| 
|------------------------------------------------------| 
|--7--7--7--7--7--7--7--7---------5-H-7---------5-H-7--| 
|--------------------------5-H-7---------5-H-7---------| 
 
|-------------|-------------|------7---------| 
|-------------|-------------|----------------| 
|-------------|-------------|----------------| 
|--O----------|--O----------|--O------O---O--| 
 
G 
|--------------------------------(--------7--)--------| 
|*-------------------------------(5--7--9----)--------| 
|*--7--7--7--7--7--7--7--7--5-H-7--7--7--7--5--5-H-7--| 
|-----------------------------------------------------| 
 
|--------------------------------(--------7--)----------| 
|--------------------------------(5--7--9----)----------| 
|--7--7--7--7--7-P-5--5--5--5-H-7--5-H-7--5-H-7--5-H-7--| 
|-------------------------------------------------------| 
 
|--------------------------------(--------7--)----------| 
|--------------------------------(5--7--9----)----------| 
|---------5-H-7---------5-H-7--7--7--7--7--7--5--7------| 
|--5-H-7---------5-H-7----------------------------------| 
 
|--------------------------------(--------7--)----------| 
|--------------------------------(5--7--9----)----------| 
|--7--7--7--7--7--7--7--7--5-H-7--5-H-7--5-H-7--5-H-7---| 
|-------------------------------------------------------| 
 
|-----------------------------7--9--9-------------(7)| 
|-----------------6--7--7--9------------(5--7--9--)--| 
|--7--7--7--7--7-----------------------7-P-5--5-H-7--| 
|----------------------------------------------------| 
 
|-----------------------------7--9--9-------------(7)| 
|-----------------6--7--7--9------------(5--7--9--)--| 
|--7--7--7--7--7-----------------------7-P-5--5-H-7--| 
|----------------------------------------------------| 
 
|-----------------------------7--9--9-------------(7)------------------| 
|-----------------6--7--7--9------------(5--7--9--)--------------------| 
|--7--7--7--7--7-----------------------7-P-5--5-H-7----(7-----------)--| 
|------------------------------------------------------(--9--7--5--4)--| 
 
|-----------------------------7---9--| 
|-----------------------6--9---------| 
|--7--7--7--7--7--7--7---------------| 
|------------------------------------| 
 
|-----------------------------7--9-P-7--9-P-7--9-P-7--|-------------------| 
|-----------------------6--9--------------------------|------------------*| 
|--7--7--7--7--7--7--7--------------------------------|------------------*| 
|-----------------------------------------------------|-------------------| 
 
2________________________________ 
|--------------------------------|-----------------|------------------------------------| 
|--------------------------------|-----------------|------------------------------------| 
|--------------------------------|--7---7---7---7--|--7--7--7--7--7--7--7--7--7--7---7--| 
|--2--O---2--O---2--O--2--O---2--|-----------------|------------------------------------| 
 
|--------9------|-------------|------------|----------| 
|------------9--|-------------|------------|----------| 
|---------------|-------------|------------|----------| 
|--O------------|--O----------|--O---------|----------| 
 
 
 
 

	  

Full key step upFull key step up
Half key step upHalf key step up
Half key step downHalf key step down
Full key step downFull key step down
Search Paypal
auto scroll beats size up size down change color hide chords drawings
tab show chords e-chords YouTube Clip e-chords hide all tabs e-chords go to top tab