The Beatles

home > The Beatles

All I've Got To Do Bass Tab

The Beatles

Difficulty: IntermediateIntermediate

by Adolfogomes

tuner correct add songbook print version text version save to e-mail
chordsukulelecavacokeyboardtabbassdrumsharmonicsflute Guitar Pro
chords

All I've Got To Do

  		ALL I'VE GOT TO DO 

1 parte 
G|-----------------------------------------------| 
D|-----------------------------------------------| 
A|--------------------------------------------2--| 
E|-----------------------------------------------| 
                           

Verso: 
G|------- ------- ------- -------|------- ------- ------- -------| 
D|6-----------6------------------|6-----------6------------------| 
A|4-----------4---------------2--|4-----------4----------------2-| 
E|-------------------------------|-------------------------------| 
                                                   


G|4------ ----4-- ------- -------|4------ ----4-- ------- -------| 
D|2-----------2------------------|2-----------2------------------| 
A|----------------------------2--|----------------------------2--| 
E|-------------------------------|-------------------------------| 
   


G|------- ------- ------- -------|------- ------- ------- -------| 
D|6-----------6------------------|6-----------6------------------| 
A|4-----------4---------------2--|4-----------4------------------| 
E|-------------------------------|-------------------------------| 
   


G|------- ------- ------- -------|------- ------- ------- -------| 
D|4-------4----------------------|4-------4---------------4------| 
A|----------------4-------4------|----------------4--------------| 
E|-------------------------------|-------------------------------| 
   


G|------- ------- ------- -------|------- ------- ------- -------| 
D|-------------------------------|2------------------------------| 
A|0---------------0-------3------|----------------2-------2------| 
E|-------------------------------|-------------------------------| 
       


G|------- ------- ------- -------| 
D|2------------------------------| 
A|-------------------------------| 
E|-------------------------------| 


Meio: 
G|------- ------- ------- -------| 
D|-------------------------------| 
A|7-------7-------7-------7------| 
E|-------------------------------| 
           


G|------- ------- ------- -------|------- ------- ------- -------| 
D|-------------------------------|-------------------------------| 
A|----------------4-------7------|----------------4-------7------| 
E|5-------5----------------------|5-------5----------------------| 
   


G|------- ------- ------- -------|------- ------- ------- -------| 
D|----------------6--------------|------------6------------------| 
A|4-------4----------------------|4-----------------------4------| 
E|------------------------4------|----------------------------7--| 



G|------- ------- ------- -------|------- ------- ------- -------| 
D|-------------------------------|-------------------------------| 
A|------------7-----------4------|7-----------4-----------7------| 
E|5------------------------------|-------------------------------| 



G|------- ------- ------- -------|------- ------- ------- -------| 
D|-------------------------------|-------------------------------| 
A|------------4-----------7---4--|7---------------------------6--| 
E|5------------------------------|------------7---7--------------| 

Escrita por: John Lennon e Paul McCartney 
	  

Search Paypal
auto scroll beats size up size down change color hide chords drawings
tab show chords e-chords YouTube Clip e-chords hide all tabs e-chords go to top tab