The Beatles

home > The Beatles

I Me Mine Tab

The Beatles

Difficulty: ExpertExpert

by Pete%5FTownshend

tuner correct add songbook print version text version save to e-mail
chordsukulelecavacokeyboardtabbassdrumsharmonicsflute Guitar Pro
chords

I Me Mine

  		Intro  riff: 
  Am                           D 
E|----------------------------|----------5--------8----10---- 
B|----------------------------|5----8------------------------ 
G|------------------------5h7-|------------------------------ 
D|--------------------5h7-----|------------------------------ 
A|----------------------------|------------------------------ 
E|5---------------------------|------------------------------ 
  G            E7 
E|10b11-------------8----10---- 
B|----------------------------- 
G|----------------------------- 
D|----------------------------- 
A|----------------------------- 
E|----------------------------- 

	  

Full key step upFull key step up
Half key step upHalf key step up
Half key step downHalf key step down
Full key step downFull key step down
Search Paypal
auto scroll beats size up size down change color hide chords drawings
tab show chords e-chords YouTube Clip e-chords hide all tabs e-chords go to top tab