Boyce Avenue

home > Boyce Aven... > chords

Skyscraper (acoustic) Tab

Boyce Avenue

Difficulty: BeginnerBeginner

by educastilho

tuner correct add songbook print version text version rtf version e-mail
chordsukulelecavacokeyboardtabbassdrumsharmonicsflute Guitar Pro
chords

Skyscraper (acoustic)

	  

Intro: 


 e|--------------------------------------------------------------------| 
 B|-0-0-0-0--0-0-0---1-1-1-1--1-1-1---0-0-0-0--0-0-0---3-3-3-3--3-3-3--| 
 G|-0-0-0-0--0-0-0---0-0-0-0--0-0-0---0-0-0-0--0-0-0---2-2-2-2--2-2-2--| 
 D|--------------------------------------------------------------------| 
 A|------------------3-3-3-3--3-3-3---2-2-2-2--2-2-2---0-0-0-0--0-0-0--| 
 E|-3-3-3-3--3-3-3-----------------------------------------------------| 


Alejandro Manzano 

Skies are crying, I am watching, Catching teardrops in my hands 
 e|--------------------------------------------------------------------| 
 B|-0-0-0-0--0-0-0---1-1-1-1--1-1-1---0-0-0-0--0-0-0---3-3-3-3--3-3-3--| 
 G|-0-0-0-0--0-0-0---0-0-0-0--0-0-0---0-0-0-0--0-0-0---2-2-2-2--2-2-2--| 
 D|--------------------------------------------------------------------| 
 A|------------------3-3-3-3--3-3-3---2-2-2-2--2-2-2---0-0-0-0--0-0-0--| 
 E|-3-3-3-3--3-3-3-----------------------------------------------------| 


 Only silence, as it's ending, like we never had a chance 
 e|--------------------------------------------------------------------| 
 B|-0-0-0-0--0-0-0---1-1-1-1--1-1-1---0-0-0-0--0-0-0---3-3-3-3--3-3-3--| 
 G|-0-0-0-0--0-0-0---0-0-0-0--0-0-0---0-0-0-0--0-0-0---2-2-2-2--2-2-2--| 
 D|--------------------------------------------------------------------| 
 A|------------------3-3-3-3--3-3-3---2-2-2-2--2-2-2---0-0-0-0--0-0-0--| 
 E|-3-3-3-3--3-3-3-----------------------------------------------------| 


Do you have to, make me feel like there is nothing left of me? 
 e|--------------------------------------------------------------------| 
 B|-0-0-0-0--0-0-0---1-1-1-1--1-1-1---0-0-0-0--0-0-0----- --3----------| 
 G|-0-0-0-0--0-0-0---0-0-0-0--0-0-0---0-0-0-0--0-0-0------ -2----------| 
 D|--------------------------------------------------------------------| 
 A|------------------3-3-3-3--3-3-3---2-2-2-2--2-2-2------ -0----------| 
 E|-3-3-3-3--3-3-3-----------------------------------------------------| 


Chorus-Megan Nicole 

You can take everything I have, You can break everything I am 
 e|--------------------------------------------------------------------| 
 B|----------0----------------1----------------0--------------3--------| 
 G|----------0----------------0----------------0--------------2--------| 
 D|--------------------------------------------------------------------| 
 A|---------------------------3----------------2--------------0--------| 
 E|----------3---------------------------------------------------------| 


   Like i'm made of glass,         Like i'm made of paper 
 e|--------------------------------------------------------------------| 
 B|--------------------------0-------1----------------0---------3------| 
 G|------------------------0-------0----------------0---------2--------| 
 D|----------------------0-------2----------------2---------0----------| 
 A|----------------------------3----------------2---------0------------| 
 E|--------------------3-----------------------------------------------| 


Go on and try to tear me down, I will be rising from the ground 
 e|--------------------------------------------------------------------| 
 B|----------0----------------1----------------0--------------3--------| 
 G|----------0----------------0----------------0--------------2--------| 
 D|--------------------------------------------------------------------| 
 A|---------------------------3----------------2--------------0--------| 
 E|----------3---------------------------------------------------------| 


          Like a skyscraper!,         Like a skyscraper! 
 e|--------------------------------------------------------------------| 
 B|--------------------------0-------1----------------0-----3----------| 
 G|------------------------0-------0----------------0-------2----------| 
 D|----------------------0-------2----------------2---------0----------| 
 A|----------------------------3----------------2-----------0----------| 
 E|--------------------3-----------------------------------------------| 


Alejandro Manzano 

As the smoke clears, I awaken, and untangle you from me 
 e|--------------------------------------------------------------------| 
 B|-0-0-0-0--0-0-0---1-1-1-1--1-1-1---0-0-0-0--0-0-0---3-3-3-3--3-3-3--| 
 G|-0-0-0-0--0-0-0---0-0-0-0--0-0-0---0-0-0-0--0-0-0---2-2-2-2--2-2-2--| 
 D|--------------------------------------------------------------------| 
 A|------------------3-3-3-3--3-3-3---2-2-2-2--2-2-2---0-0-0-0--0-0-0--| 
 E|-3-3-3-3--3-3-3-----------------------------------------------------| 


Would it make you, feel better to watch me while I bleed? 
 e|--------------------------------------------------------------------| 
 B|-0-0-0-0--0-0-0---1-1-1-1--1-1-1---0-0-0-0--0-0-0---3-3-3-3--3-3-3--| 
 G|-0-0-0-0--0-0-0---0-0-0-0--0-0-0---0-0-0-0--0-0-0---2-2-2-2--2-2-2--| 
 D|--------------------------------------------------------------------| 
 A|------------------3-3-3-3--3-3-3---2-2-2-2--2-2-2---0-0-0-0--0-0-0--| 
 E|-3-3-3-3--3-3-3-----------------------------------------------------| 


All my windows, still are broken, But I'm standing on my feet 
 e|--------------------------------------------------------------------| 
 B|-0-0-0-0--0-0-0---1-1-1-1--1-1-1---0-0-0-0--0-0-0-------3-----------| 
 G|-0-0-0-0--0-0-0---0-0-0-0--0-0-0---0-0-0-0--0-0-0-------2-----------| 
 D|--------------------------------------------------------------------| 
 A|------------------3-3-3-3--3-3-3---2-2-2-2--2-2-2-------0-----------| 
 E|-3-3-3-3--3-3-3-----------------------------------------------------| 


Chorus-Megan Nicole 

You can take everything I have, You can break everything I am 
 e|--------------------------------------------------------------------| 
 B|----------0----------------1----------------0--------------3--------| 
 G|----------0----------------0----------------0--------------2--------| 
 D|--------------------------------------------------------------------| 
 A|---------------------------3----------------2--------------0--------| 
 E|----------3---------------------------------------------------------| 


   Like i'm made of glass,         Like i'm made of paper 
 e|--------------------------------------------------------------------| 
 B|--------------------------0-------1----------------0---------3------| 
 G|------------------------0-------0----------------0---------2--------| 
 D|----------------------0-------2----------------2---------0----------| 
 A|----------------------------3----------------2---------0------------| 
 E|--------------------3-----------------------------------------------| 


Go on and try to tear me down, I will be rising from the ground 
 e|--------------------------------------------------------------------| 
 B|----------0----------------1----------------0--------------3--------| 
 G|----------0----------------0----------------0--------------2--------| 
 D|--------------------------------------------------------------------| 
 A|---------------------------3----------------2--------------0--------| 
 E|----------3---------------------------------------------------------| 


          Like a skyscraper!,         Like a skyscraper! 
 e|--------------------------------------------------------------------| 
 B|--------------------------0-------1----------------0-----------3----| 
 G|------------------------0-------0----------------0-----------2------| 
 D|----------------------0-------2----------------2-----------0--------| 
 A|----------------------------3----------------2-----------0----------| 
 E|--------------------3-----------------------------------------------| 


Outro: 

 e|------------------------------------------------------------------------| 
 B|-------------0-------1----------------0---------3-----------x(7)--------| 
 G|-----------0-------0----------------0---------2---2-------x(7)--x(7)----| 
 D|---------0-------2----------------2---------0-----------x(9)------x(7)--| 
 A|--------------3----------------2---------0------------------------------| 
 E|-------3----------------------------------------------7--------------\3-| 

 
	  

Request the video "Skyscraper (acoustic)"  -  Send "Skyscraper (acoustic)" Ringtone to your Cell

there isn't a video lesson for this song

request
Search
auto scroll beats size up size down change color hide chords drawings
tab show chords e-chords YouTube Clip e-chords hide all tabs e-chords go to top tab