Boyce Avenue

home > Boyce Avenue

If You Could Only See Tab

Boyce Avenue

Difficulty: nolevelnolevel

by ang%2Dletra

tuner correct add songbook print version text version save to e-mail
chordsukulelecavacokeyboardtabbassdrumsharmonicsflute Guitar Pro
chords

If You Could Only See

  		

Intro/Verse 1: 
e|----0--------0--------|----3--------3--------| 
B|----1--------1--------|----3--------3--------| 
G|----2--------0--------|----0--------0--------|(3x) 
D|----2--------2--------|----0--------0--------| 
A|----0--------3--------|----x--------x--------| 
E|----x--------x--------|----3--------1--------| 

e|----0--xxx------0--xxx--|----3--xxx------0-----| 
B|----1--xxx------1--xxx--|----3--xxx------0-----| 
G|----2--xxx------0--xxx--|----0--xxx------2-----|(2x) 
D|----2--xxx------2--xxx--|----0--xxx------3-----| 
A|----0--xxx------3--xxx--|----x--xxx------3-----| 
E|----x--xxx------x--xxx--|----3--xxx------1-----| 

Verse 2: 
e|--------------------------|-------------------------0-----| 
B|--------------------------|-------------------------3-----| 
G|--------------------------|-------------------------0-----|(2x) 
D|---5/7---5/7---5/7---5/7--|----3x3x3x3--3x3-3-3-----4-----| 
A|---5/7---5/7---5/7---5/7--|----3x3x3x3--3x3-3-3-----5-----| 
E|---3/5---3/5---3/5---3/5--|----1x1x1x1--1x1-0h1-----x-----| 

Pre Chorus: 

e|----0--------0--------|---0------0-------| 
B|----0--------3--------|---0------0-------| 
G|----2--------0--------|---4------2-------|(1x) 
D|----2--------2--------|---5------3-------| 
A|----0--------3--------|---5------3-------| 
E|----x--------x--------|---x------x-------| 

Chorus: 
e|----0--------0--------|----3--------3--------| 
B|----1--------1--------|----3--------3--------| 
G|----2--------0--------|----0--------0--------|(3x) 
D|----2--------2--------|----0--------0--------| 
A|----0--------3--------|----x--------x--------| 
E|----x--------x--------|----3--------1--------| 

e|----0--xxx------0--xxx--|----3--xxx------0-----| 
B|----1--xxx------1--xxx--|----3--xxx------0-----| 
G|----2--xxx------0--xxx--|----0--xxx------2-----|(2x) 
D|----2--xxx------2--xxx--|----0--xxx------3-----| 
A|----0--xxx------3--xxx--|----x--xxx------3-----| 
E|----x--xxx------x--xxx--|----3--xxx------1-----| 

Verse 3: 
e|--------------------------|-------------------------0-----| 
B|--------------------------|-------------------------3-----| 
G|--------------------------|-------------------------0-----|(2x) 
D|---5/7---5/7---5/7---5/7--|----3x3x3x3--3x3-3-3-----4-----| 
A|---5/7---5/7---5/7---5/7--|----3x3x3x3--3x3-3-3-----5-----| 
E|---3/5---3/5---3/5---3/5--|----1x1x1x1--1x1-0h1-----x-----| 

Pre Chorus: 

e|----0--------0--------|---0------0-------| 
B|----0--------3--------|---0------0-------| 
G|----2--------0--------|---4------2-------|(2x) 
D|----2--------2--------|---5------3-------| 
A|----0--------3--------|---5------3-------| 
E|----x--------x--------|---x------x-------| 

Chorus: 
e|----0--------0--------|----3--------3--------| 
B|----1--------1--------|----3--------3--------| 
G|----2--------0--------|----0--------0--------|(2x) 
D|----2--------2--------|----0--------0--------| 
A|----0--------3--------|----x--------x--------| 
E|----x--------x--------|----3--------1--------| 

e|----0--------0--------|----3--------0--------| 
B|----1--------1--------|----3--------0--------| 
G|----2--------0--------|----0--------0--------|(1x) 
D|----2--------2--------|----0--------2--------| 
A|----0--------3--------|----x--------2--------| 
E|----x--------x--------|----3--------x--------| 

Solo: 

e|--------------------|----3--------0------| 
B|----0--------1-1x1--|----3--------1------| 
G|----1--------2-2x2--|----0--------2------|(1x) 
D|----2--------3-3x3--|----0--------2------| 
A|----2--------3-3x3--|----x--------0------| 
E|----x--------x-xxx--|----3--------x------| 

e|--------------------|----3--------0--------------| 
B|----0--------1x1x1--|----3--------1---1----1-----| 
G|----1--------2x2x2--|----0--------2---0h2--0h2---|(1x) 
D|----2--------3x3x3--|----0--------2---0h2--0h2---| 
A|----2--------3x3x3--|----x--------0---0----0-----| 
E|----x--------xxxxx--|----3--------x--------------| 

e|--------------------|----3--------0---x-----| 
B|----0--------1x1x1--|----3--------1---3/5---| 
G|----1--------2x2x2--|----0--------2---x-----|(1x) 
D|----2--------3x3x3--|----0--------2---x-----| 
A|----2--------3x3x3--|----x--------0---x-----| 
E|----x--------xxxxx--|----3--------x---------| 

e|--------------------|----3--------0------| 
B|----0--------1x1x1--|----3--------1------| 
G|----1--------2x2x2--|----0--------2------|(1x) 
D|----2--------3x3x3--|----0--------2------| 
A|----2--------3x3x3--|----x--------0------| 
E|----x--------xxxxx--|----3--------x------| 

Verse 4: 

e|----0--------0--------|----0--------0------| 
B|----0--------0--------|----0--------0------| 
G|----9--------9--------|----3--------2------|(2x) 
D|----10-------10-------|----5--------3------| 
A|----0--------10-------|----5--------3------| 
E|----x--------x--------|----x--------x------| 

Chorus: 
e|----0--------0--------|----3--------3--------| 
B|----1--------1--------|----3--------3--------| 
G|----2--------0--------|----0--------0--------|(2x) 
D|----2--------2--------|----0--------0--------| 
A|----0--------3--------|----x--------x--------| 
E|----x--------x--------|----3--------1--------| 

e|----0--------0--------|----3--------0--------| 
B|----1--------1--------|----3--------0--------| 
G|----2--------0--------|----0--------2--------|(1x) 
D|----2--------2--------|----0--------3--------| 
A|----0--------3--------|----x--------3--------| 
E|----x--------x--------|----3--------1--------| 


Outro: 
e|--------| 
B|---0----| 
G|---0h2--|(1x) 
D|---2----| 
A|---0----| 
E|--------| 
	  

Search Paypal
auto scroll beats size up size down change color hide chords drawings
tab show chords e-chords YouTube Clip e-chords hide all tabs e-chords go to top tab