Red Hot Chili Peppers

home > Red Hot Chili Pepp...

Scar Tissue Tab

Red Hot Chili Peppers

Difficulty: BeginnerBeginner

by andrevilaverde

tuner correct add songbook print version text version save to e-mail
chordsukulelecavacokeyboardtabbassdrumsharmonicsflute Guitar Pro
chords

Scar Tissue

  		E---5---5---5---5------------------- 
B----------------------------------- 
G----------------------------------- 
D-3---3---3---3--------------------- 
A----------------------------------- 
E----------------------------------- 

E----------------------------------- 
B-5--5S------6--6------------------- 
G----------------------------------- 
D----------------------------------- 
A-3--3S-----5----------------------- 
E----------------------------------- 

E----------------------------------- 
B---6---6--------------------------- 
G----------------------------------- 
D----------------------------------- 
A-5---5---5------------------------- 
E----------------------------------- 

E----------------------------------- 
B-6S---5---------------------------- 
G----------------------------------- 
D----------------------------------- 
A---------3------------------------- 
E----------------------------------- 

OBS:esses S significa slide 
Slide  quando vc toca em uma casa e desleza para a outra casa 


	  

Search Paypal
auto scroll beats size up size down change color hide chords drawings
tab show chords e-chords YouTube Clip e-chords hide all tabs e-chords go to top tab