Boyce Avenue

home > Boyce Avenue

Radioactive Tab

Boyce Avenue

Difficulty: BeginnerBeginner

by tercmoraes

tuner correct add songbook print version text version save to e-mail
chordsukulelecavacokeyboardtabbassdrumsharmonicsflute Guitar Pro
chords

Radioactive

  		
Capo 

Intro 

e|-0---0^3-------0---0^3-------0---0^3------3^2-0-------| 
B|---3-----3---3---3-----3---3---3----3---3-------3-----| 
G|-----------0-------------0------------0-----------2^0-| 
D|-----------------------------0------------------------| 
A|------------------------------------------0---2-------| 
E|-0-------------3--------------------------------------| 

e|-0---0^3-------0---0^3-------0---0^3-------3^2-0------| 
B|---3-----3---3---3-----3---3---3-----3---3-------3----| 
G|-----------0-------------0-------------0--------------| 
D|-----------------------------0------------------------| 
A|-------------------------------------------0----------| 
E|-0----------------------------------------------------| 

e|-0---0^3-------0---0^3-------0---0^3-------x-x-| 
B|---3-----3---3---3-----3---3---3-----3---3-x-x-| 
G|-----------0-------------0-------------0---2-x-| 
D|-------------------------------------------0-4-| 
A|-0-------------0-------------0-------------x-2-| 
E|-------------------------------------------x-x-| 

Verse 1 

e|-x-x-x-x-|-x-x-x-x-|-x-x-x-x-|-x-x-x-x-| 
B|-0-3-3-0-|-0-3-3-x-|-0-3-3-0-|-0-3-3-0-| 
G|-0-0-0-0-|-0-0-0-4-|-0-0-0-0-|-0-0-0-0-| 
D|-2-4-4-2-|-2-4-4-4-|-2-4-4-2-|-2-4-4-2-| 
A|-x-x-5-0-|-x-x-5-2-|-x-x-5-0-|-x-x-5-0-| 
E|-0-3-x-x-|-0-3-x-x-|-0-3-x-x-|-0-3-x-x-| 

Chorus 1 

e|---------------------|---------------------| 
B|----0----3----3----0-|----0----3----3----0-| 
G|---0----0----0----0--|---0----0----0----0--| 
D|--2----4----4----2---|--2----4----4----2---| 
A|-----------5----0----|-----------5----0----| 
E|-0----3--------------|-0----3--------------| 

e|-----------------------------------|----------------------------------| 
B|----0--------3-------3-------0-----|----0--------3-------3------------| 
G|---0--------0---0---0-0-0---0-0----|---0-0------0---0---0-0-0---------| 
D|--2---2^4--4---4---4---4---2---0^2-|--2---2^4--4---4---4---4----------| 
A|------------------5-------0--------|------------------5-------0-------| 
E|-0--------3------------------------|-0--------3-----------------------| 

Verse 2 

e|-x-x-x-x-|-x-x-x-x-|---------------------|---------------------| 
B|-0-3-3-0-|-0-3-3-x-|----0----3----3----0-|----0----3----3----0-| 
G|-0-0-0-0-|-0-0-0-4-|---0----0----0----0--|---0----0----0----0--| 
D|-2-4-4-2-|-2-4-4-4-|--2----4----4----2---|--2----4----4----2---| 
A|-x-x-5-0-|-x-x-5-2-|-----------5----0----|-----------5----0----| 
E|-0-3-x-x-|-0-3-x-x-|-0----3--------------|-0----3--------------| 

Chorus 2 

e|---------------------|---------------------| 
B|----0----3----3----0-|----0----3----3----0-| 
G|---0----0----0----0--|---0----0----0----0--| 
D|--2----4----4----2---|--2----4----4----2---| 
A|-----------5----0----|-----------5----0----| 
E|-0----3--------------|-0----3--------------| 

e|-----------------------------------|-----------------------------------| 
B|----0--------3-------3-------0-----|----0--------3-------3-------------| 
G|---0-0------0-0-0---0-0-0---0-0----|---0-0------0-0-0---0-0-0----------| 
D|--2---2^4--4---4---4---4---2---0^2-|--2---2^4--4---4---4---4-----------| 
A|------------------5-------0--------|------------------5-------0--------| 
E|-0--------3------------------------|-0--------3------------------------| 

Bridge 

e|-x-x-x-x-|-x-x-x-x---------| 
B|-0-3-3-2-|-0-3-3-2---------| 
G|-0-0-0-2-|-0-0-0-2---------| 
D|-2-4-4-2-|-2-4-4-2---------| 
A|-x-x-5-0-|-x-x-5-0---------| 
E|-0-3-x-x-|-0-3-x-x---------| 

Chorus 3 (2x) 
  
      6x  
e|-0-0-0-0-|  
B|-0-3-3-2-|  
G|-0-4-0-2-|  
D|-2-5-4-2-|  
A|-2-5-5-0-|  
E|-0-3-5-0-|  

or (somewhat more dissonant) 

e|-0-0-0-0-|   
B|-0-3-3-2-|     
G|-0-x-x-2-|       
D|-2-4-4-2-|       
A|-2-0-5-0-|   
E|-0-3-x-0-|       
    
 
	  

Search Paypal
auto scroll beats size up size down change color hide chords drawings
tab show chords e-chords YouTube Clip e-chords hide all tabs e-chords go to top tab