Boyce Avenue

home > Boyce Avenue

Blame Tab

Boyce Avenue

Difficulty: nolevelnolevel

by educastilho

tuner correct add songbook print version text version save to e-mail
chordsukulelecavacokeyboardtabbassdrumsharmonicsflute Guitar Pro
chords

Blame

  		


Intro: 

Eb|-----4---------------7---------------4---------------4-------2h4p2| 
Bb|---------5---------------5---------------4---------------2--------| 
Gb|------------------------------------------------------------------| 
Db|------------------------------------------------------------------| 
Ab|-0---------------4---------------2--------------------------------| 
Eb|-------------------------------------------------2-----------4----| 


verse 1: 

Eb|-----4---------------7---------------4---------------4------------| 
Bb|---------5---------------5---------------4---------------2--------| 
Gb|------------------------------------------------------------------| 
Db|------------------------------------------------------------------| 
Ab|-0---------------4---------------2--------------------------------| 
Eb|-------------------------------------------------2----------------| 

Eb|-----4---------------7---------------4---------------4-------2h4p2| 
Bb|---------5---------------5---------------4---------------2--------| 
Gb|------------------------------------------------------------------| 
Db|------------------------------------------------------------------| 
Ab|-0---------------4---------------2--------------------------------| 
Eb|-------------------------------------------------2-----------4----| 


Chorus: 

Eb|-----4---------------7---------------4---------------4------------| 
Bb|---------5---------------5---------------4---------------4--------| 
Gb|------------------------------------------------------------------| x4 
Db|------------------------------------------------------------------| 
Ab|-0---------------4---------------2---------------2----------------| 
Eb|------------------------------------------------------------------| 

Eb|------------------------------------------------------------------| 
Bb|---9----9----9----9-----------------------------------------------| 
Gb|-6----6----6----6---6-6-6-6-6-6-6-6-6-----------------------------| 
Db|------------------------------------------------------------------| 
Ab|------------------------------------------------------------------| 
Eb|------------------------------------------------------------------| 


Instrumental: 

Eb|------------------------------------------------------| 
Bb|---9----9----9----9-----------9----9----9----9--------| 
Gb|---------------------11-------------------------11----| 
Db|-11---11---11---11----------11---11---11---11---------| 
Ab|------------------------------------------------------|\ 
Eb|------------------------------------------------------| \ 
                                                  *         x2 
Eb|------------------------------------------------------| / 
Bb|---7----7----7----7----------12---12---12---12--------|/ 
Gb|---------------------8-------------------------11b13--| 
Db|-9----9----9----9----------9----9----9----9-----------| 
Ab|------------------------------------------------------| 
Eb|------------------------------------------------------| 

(*)  or just slide 11/13 


verse 2 - same as verse 1 

Chorus 

Instrumental  

Bridge: 

  |-- p.m. 
Eb|------------------------------------------------------| 
Bb|------------------------------------------------------| 
Gb|------------------------------------------------------| 
Db|-2---2---2---4-2--4-2-------2---2---2---6-2--4-2------| 
Ab|------------------------4--------------------------2--|\ 
Eb|------------------------------------------------------| \ 
                                                            \ 
                                                             x4 
Eb|------------------------------------------------------|  / 
Bb|------------------------------------------------------| / 
Gb|------------------------------------------------------|/ 
Db|-2---2---2---4-2--4-2-------2---2---2---6-2--4-2------| 
Ab|---------------------------------------------------0--| 
Eb|------------------------2-----------------------------| 

    *                                             p.m. --| 
Eb|------------------------------------------------------| 
Bb|------------------------------------------------------| 
Gb|------------------------------------------------------| 
Db|------------------------------------------------------| 
Ab|-12(x56)----------------------------------------------| 
Eb|------------------------------------------------------| 

(*)  3 and a 1/2 measure 


Instrumental  x4 


************************************ 

| /      slide up 
| \      slide down 
| h      hammer-on 
| p      pull-off 
| p.m.   palm mute 
| b      Bend 
************************************ 
	  

Search Paypal
auto scroll beats size up size down change color hide chords drawings
tab show chords e-chords YouTube Clip e-chords hide all tabs e-chords go to top tab