Boyce Avenue

home > Boyce Avenue

Locked Out Of Heaven Tab

Boyce Avenue

Difficulty: AdvancedAdvanced

by sabrjoao

tuner correct add songbook print version text version save to e-mail
chordsukulelecavacokeyboardtabbassdrumsharmonicsflute Guitar Pro
chords

Locked Out Of Heaven

  		

Intro(x1) & Verse(x2): 

e|-----------------------------------------------------------------| 
C|-------------0---------------0---------------0-------4h5p4-------| 
G|-----------0---------------0---------------0-----0---------5-----| 
D|-----------------------------------------------------------------| 
A|-5---7-----------5---3-----------3---0---------------------------| 
D|-5---7-----------5---3-----------3---0---------------------------| 

e|-----------------------------------------------------0-----------| 
C|-------------0---------------0---------------0-------------------| 
G|-----------0---------------0---------------0-----0---------------| 
D|-----------------------------------------------------------------| 
A|-5---7-----------5---3-----------3---0---------------------------| 
D|-5---7-----------5---3-----------3---0---------------------------| 


Pre-Chorus 1: 

e|-----------------------------------------------------0-----------| 
C|-------------0---------------0---------------0-------------------| 
G|-----------0---------------0---------------0-----0---------------| 
D|-----------------------------------------------------------------| 
A|-5---7-----------5---3-----------3---0---------------------------| 
D|-5---7-----------5---3-----------3---0---------------------------| 

e|-----------------------------------------------------------------| 
C|-------------0-------------------------------2-------------------| 
G|-0-------------------------------1-------------------------------| 
D|-------2-------------------------------2-------------------------| 
A|-3-------------------------------2-------------------------------| 
D|-----------------------------------------------------------------| 


Chorus 1(x2): 

e|-------0-------------------------------0-------------------------| 
C|-5-------------------------------5-------------------------------| 
G|-------------5-------------------------------5-------------------| 
D|-----------------------------------------------------------------| 
A|-----------------------------------------------------------------| 
D|-3-------------------------------0-------------------------------| 

e|-----------------------------------------------------------------| 
C|-4-------------------------------4-------------------------------| 
G|-------5-------------------------------5-------------------------| 
D|-------------2-------------------------------0-------------------| 
A|-3---------------------------------------------------------------| 
D|---------------------------------5-------------------------------| 


Intro(x1) 

Verse(x2) 


Pre-Chorus 2: 

e|-----------------------------------------------------0-----------| 
C|-------------0---------------0---------------0-------------------| 
G|-----------0---------------0---------------0-----0---------------| 
D|-----------------------------------------------------------------| 
A|-5---7-----------5---3-----------3---0---------------------------| 
D|-5---7-----------5---3-----------3---0---------------------------| 

e|-----------------------------------------------------------------| 
C|-------------4-------------------------------2-------------------| 
G|-0-------------------------------1-------------------------------| 
D|-------2-------------------------------2-------------------------| 
A|-3-3-3-3-3-3-3-3-3-3-3-3-3-3-3-3-2-2-2-2-2-2-2-2-2-2-2-2-2-2-2-2-| 
D|-----------------------------------------------------------------| 


Chorus 2(x2): 
e|-------0-------------------------------0-------------------------| 
C|-5-------------------------------5-------------------------------| 
G|-------------5-------------------------------5-------------------| 
D|-----------------------------------------------------------------| 
A|-----------------------------------------------------------------| 
D|-3-3-3-3-3-3-3-3-3-3-3-3-3-3-3-3-0-0-0-0-0-0-0-0-0-0-0-0-0-0-0-0-| 

e|-----------------------------------------------------------------| 
C|-4-------------------------------4-------------------------------| 
G|-------5-------------------------------5-------------------------| 
D|-------------2-------------------------------0-------------------| 
A|-3-3-3-3-3-3-3-3-3-3-3-3-3-3-3-3---------------------------------| 
D|---------------------------------5-5-5-5-5-5-5-5-5-5-5-5-5-5-5-5-| 


Bridge(x2, downstrokes only): 

e|-----------------------------------------------------------------| 
C|-0-----0-----0-----0-----0---0---0-----0-----0-----0-----0---0---| 
G|-2-----2-----2-----2-----2---2---5-----5-----5-----5-----5---5---| 
D|-3-3-3-3-3-3-3-3-3-3-3-3-3-3-3-3-0-0-0-0-0-0-0-0-0-0-0-0-0-0-0-0-| 
A|-3-3-3-3-3-3-3-3-3-3-3-3-3-3-3-3-0-0-0-0-0-0-0-0-0-0-0-0-0-0-0-0-| 
D|-3-3-3-3-3-3-3-3-3-3-3-3-3-3-3-3-0-0-0-0-0-0-0-0-0-0-0-0-0-0-0-0-| 

e|-0-----0-----0-----0-----0---0-----------------------------------| 
C|-4-----4-----4-----4-----4---4---0-----0-----0-----0-----0---0---| 
G|-5-5-5-5-5-5-5-5-5-5-5-5-5-5-5-5-7-----7-----7-----7-----7---7---| 
D|-0-0-0-0-0-0-0-0-0-0-0-0-0-0-0-0-0-0-0-0-0-0-0-0-0-0-0-0-0-0-0-0-| 
A|-3-3-3-3-3-3-3-3-3-3-3-3-3-3-3-3-x-x-x-x-x-x-x-x-x-x-x-x-x-x-x-x-| 
D|---------------------------------5-5-5-5-5-5-5-5-5-5-5-5-5-5-5-5-| 


Chorus 3: 

e|-----------------------------------------------------------------| 
C|-0-------------------------------0-------------------------------| 
G|-2-------------------------------5-------------------------------| 
D|-3-------------------------------0-------------------------------| 
A|-3-------------------------------0-------------------------------| 
D|-3-------------------------------0-------------------------------| 

e|-----------------------------------------------------------------| 
C|-0-------------------------------0-------------------------------| 
G|-0-------------------------------0-------------------------------| 
D|-2-------------------------------5-------------------------------| 
A|-3-------------------------------x-------------------------------| 
D|---------------------------------5-------------------------------| 

e|-------0-------------------------------0-------------------------| 
C|-5-------------------------------5-------------------------------| 
G|-------------5-------------------------------5-------------------| 
D|-----------------------------------------------------------------| 
A|-----------------------------------------------------------------| 
D|-3-3-3-3-3-3-3-3-3-3-3-3-3-3-3-3-0-0-0-0-0-0-0-0-0-0-0-0-0-0-0-0-| 

e|-----------------------------------------------------------------| 
C|-4-------------------------------4-------------------------------| 
G|-------5-------------------------------5-------------------------| 
D|-------------2-------------------------------0-------------------| 
A|-3-3-3-3-3-3-3-3-3-3-3-3-3-3-3-3---------------------------------| 
D|---------------------------------5-5-5-5-5-5-5-5-5-5-5-5-5-5-5-5-| 


Outro: 

e|-----------------------------------------------------------------| 
C|-------------0---------------0---------------0-------4h5p4-------| 
G|-----------0---------------0---------------0-----0---------5-----| 
D|-----------------------------------------------------------------| 
A|-5---7-----------5---3-----------3---0---------------------------| 
D|-5---7-----------5---3-----------3---0---------------------------| 

e|-----------------------------------------------------------------| 
C|-------------0---------------0-----------------------------------| 
G|-----------0---------------0-------------------------------------| 
D|-----------------------------------------------------------------| 
A|-5---7-----------5---3-----------3---0---------------------------| 
D|-5---7-----------5---3-----------3---0---------------------------| 



 
	  

Search Paypal
auto scroll beats size up size down change color hide chords drawings
tab show chords e-chords YouTube Clip e-chords hide all tabs e-chords go to top tab