Boyce Avenue

home > Boyce Avenue

Forever (chris Brown) Tab

Boyce Avenue

Difficulty: BeginnerBeginner

by gustsilva

tuner correct add songbook print version text version save to e-mail
chordsukulelecavacokeyboardtabbassdrumsharmonicsflute Guitar Pro
chords

Forever (chris Brown)

  		
Tuning: D  A  D  E  A  E

 x  = mute 
 /  = slide 
 ^  = hammer on or pull off 
< > = harmonic 
 b  = bend 

Guitar 1: 

Intro: (raked)(play 2x) 
 
-0----0----0----0-| 
-0----0----0----0-| 
-2----0----4----0-| 
-0----2----2----4-| 
-0----0----2----2-| 
-0---------2------| 
 

verse 1: 
--------| 
------0-| 
-2----0-| 
-0------| 
------0-| 
-0------| 

 
-----<12>-| 
---<12>---| 
-<12>-----| 
----------| 
----------| 
----------| 
 

Pre-Chorus 1 and 2: (play 2x) 
 
-0----0----0----0--| 
-0----0----0----0--| 
-10---9----7----0--| 
-0----7----6----11-| 
-0----0----7----9--| 
-0--------------9--| 
 

Chorus 1 and 2: 
 
-0----0----0----0----0----0----0----0---0-| 
-0----0----0----0----0----0----0----0---0-| 
-2----0----4----0----2----0----4----0---0-| 
-0----2----2----4----0----2----2----4---2-| 
-0----0----2----2----0----0----2----2---4-| 
-0---------2---------0---------2----------| 
 

 
-0----0----0----0-| 
-0----0----0----0-| 
-2----0----4----0-| 
-0----2----2----4-| 
-0----0----2----2-| 
-0---------2------| 
 

verse 2: 
 
--------------------------------------| 
-----7-4---------5^7--5-4--4-2--------| 
-2/5---------2/5------5----5----5^4-2-| 
----------------------0----0----------| 
--------------------------------------| 
--------------------------------------| 
 

Solo: 
 
---------------------------------------------------------------| 
---------4-5-5^7-7/9-4-2-4^5^4---0^2^0-2^4^2^0^2-----0-2^0-----| 
-0---5-7-----------------------------------------0^2-------4-2-| 
---4-----------------------------------------------------------| 
---------------------------------------------------------------| 
---------------------------------------------------------------| 
 

 
-----2/-5-5-7-9-10-10/12-12/14-9-7-9^10^9---5^7^5-7/9\7^5-7---| 
---0----------------------------------------------------------| 
-0------------------------------------------------------------| 
--------------------------------------------------------------| 
--------------------------------------------------------------| 
--------------------------------------------------------------| 
 

 
-----5-7^5-4-2--0-4^0-7^5-9b10b9--| 
-7/9------------------------------| 
----------------------------------| 
----------------------------------| 
----------------------------------| 
----------------------------------| 
 

Breakdown: 
 
-----<12>-| 
---<12>---| 
-<12>-----| 
----------| 
----------| 
----------| 
 

 
--------------------------------------------------x-| 
--------------------------------------------------x-| 
--------------------------------------------------x-| (palm mute) 
-7-7-7-7-7-7-7-7-7-7--7^9-9-9-9-9-9-7^9-9-9-9-9-9-x-| 
--------------------------------------------------x-| 
--------------------------------------------------x-| 
 

Chorus 3: 
 
-0----0----0----0----0----0----0----0--0-| 
-0----0----0----0----0----0----0----0--0-| 
-2----0----4----0----2----0----4----0--0-| 
-0----2----2----4----0----2----2----4--2-| 
-0----0----2----2----0----0----2----2--4-| 
-0---------2---------0---------2---------| 
 

 
-0----0----0----0--0--0----0----0----0------0-| 
-0----0----0----0--0--0----0----0----0------0-| 
-2----0----4----0--0--2----0----4----0------2-| 
-0----2----2----4--2--0----2----2----4------0-| 
-0----0----2----2--4--0----0----2----2------0-| 
-0---------2----------0---------2-----------0-| 
 

Guitar 2: 

Intro: (play 2x) 
 
-----------------------------------------------| 
-5-5-4-0^2--2/4-4^5^4-0--4^5-^4-2--4^5-^4-0--0-| 
-----------------------------------------------| 
-----------------------------------------------| 
-----------------------------------------------| 
-----------------------------------------------| 
 

verse 1: 
 
-------0--------0-| 
-----0--------0---| 
---4--------------| 
-2----------4-----| 
----------2-------| 
------------------| 
 

 
-------0--------0--------0--------0-| 
-----0--------0--------0--------0---| 
---2--------0--------4--------------| 
-0-----------------2----------4-----| 
----------0-----------------2-------| 
------------------------------------| 
 

 
-------0--------0--------0--------0------| 
-----0--------0--------0--------0--------| 
---2--------0--------4-----------------0-| 
-0-----------------2----------4----------| 
----------0-----------------2--------4---| 
-----------------------------------------| 
 

Pre-Chorus 1 and 2: 
 
-------0--------0--------0--------0-| 
-----0--------0--------0--------0---| 
---2--------0--------4--------------| 
-0-----------------2----------4-----| 
----------0-----------------2-------| 
------------------------------------| 
 

 
-------0--------0--------0--------0---x-| 
-----0--------0--------0--------0-----x-| 
---2--------0--------4----------------x-| 
-0-----------------2----------4-------x-| 
----------0-----------------2---------x-| 
--------------------------------------x-| 
 

Chorus 1 and 2: 
 
-0----0----0----0----0----0----0----0---0-| 
-0----0----0----0----0----0----0----0---0-| 
-2----0----4----0----2----0----4----0---0-| 
-0----2----2----4----0----2----2----4---2-| 
-0----0----2----2----0----0----2----2---4-| 
-0---------2---------0---------2----------| 
 

 
-0----0----0----0-| 
-0----0----0----0-| 
-2----0----4----0-| 
-0----2----2----4-| 
-0----0----2----2-| 
-0---------2------| 
 

verse 2: 
 
-------0--------0--------0--------0-| 
-----0--------0--------0--------0---| 
---2--------0--------4--------------| 
-0-----------------2----------4-----| 
----------0-----------------2-------| 
------------------------------------| 
 

 
-------0--------0--------0--------0------| 
-----0--------0--------0--------0--------| 
---2--------0--------4-----------------0-| 
-0-----------------2----------4----------| 
----------0-----------------2--------4---| 
-----------------------------------------| 
 

Solo: 
 
-0----0----0----0----0----0----0----0--0-| 
-0----0----0----0----0----0----0----0--0-| 
-2----0----4----0----2----0----4----0--0-| 
-0----2----2----4----0----2----2----4--2-| 
-0----0----2----2----0----0----2----2--4-| 
-0---------2---------0---------2---------| 
 

Breakdown: (play 2x) 
 
-------0--------0--------0--------0-| 
-----0--------0--------0--------0---| 
---2--------0--------4--------------| 
-0-----------------2----------4-----| 
----------0-----------------2-------| 
------------------------------------| 
 

 
-------0--------0--------0--------0-----x-| 
-----0--------0--------0--------0-------x-| 
---2--------0--------4----------------0-x-| 
-0-----------------2----------4---------x-| 
----------0-----------------2-------2---x-| 
----------------------------------------x-| 
 

Chorus 3: 
 
-0----0----0----0----0----0----0----0--0-| 
-0----0----0----0----0----0----0----0--0-| 
-2----0----4----0----2----0----4----0--0-| 
-0----2----2----4----0----2----2----4--2-| 
-0----0----2----2----0----0----2----2--4-| 
-0---------2---------0---------2---------| 
 

-0----0----0----0--0--0----0----0----0------0-| 
-0----0----0----0--0--0----0----0----0------0-| 
-2----0----4----0--0--2----0----4----0------2-| 
-0----2----2----4--2--0----2----2----4------0-| 
-0----0----2----2--4--0----0----2----2------0-| 
-0---------2----------0---------2-----------0-|