Boyce Avenue

home > Boyce Avenue

Landslide Tab

Boyce Avenue

Difficulty: nolevelnolevel

by hebealmeida

tuner correct add songbook print version text version save to e-mail
chordsukulelecavacokeyboardtabbassdrumsharmonicsflute Guitar Pro
chords

Landslide

  		
 


Intro 1: 
-------- 
   C              Em7              Am7             Em7 
E|---------------------------------------------------------------------| 
B|-------1---------------3v---------------1---------------3v-----------| 
G|-----------0---0------------0---0-----------0---0------------0---0---| 
D|-----2-------2-------0--------0-------2-------2-------0--------0-----| 
A|-3---------------2----------------0---------------2------------------| 
E|---------------------------------------------------------------------| 

Intro 2: 
-------- 
   C              Em7              Am7                      Em7 
E|---------------------------------------------------------------------| 
B|-------1---------------3v---------------1p0----------------------3---| 
G|-----------0---0------------0---0-----------0---0--------------------| 
D|-----2-------2-------0--------0-------2-------2----------------0-----| 
A|-3---------------2----------------0------------------------2---------| 
E|---------------------------------------------------------------------| 

Verse 1: 
-------- 
   C              Em7             Am7             Em7 
E|-------------------------------------------------------------------| 
B|-------1---------------3---------------1---------------3-----------| 
G|---0-------0---0---0-------0---0---0-------0---0---0-------0---0---| 
D|-----2-------2-------0-------0-------2-------2-------0-------0-----| 
A|-3-------3-------2-------2-------0-------0-------2-------2---------| 
E|-------------------------------------------------------------------| 

Verse 2: 
-------- 
   C              Em7             Am7              D9 
E|-------------------------------------------------------------------| 
B|-------1---------------3---------------1---------------1-----------| 
G|---0-------0---0---0-------0---0---0-------0---0---2-------2---0---| 
D|-----2-------2-------0-------0-------2-------2-------0-------0-----| 
A|-3-------3-------2-------2-------0-------0---------------0---------| 
E|-------------------------------------------------2-----------------| 

Chorus 1: 
--------- 
   G             Dadd9             Em 
E|-------------------------------------------------------0-----------| 
B|-------3---------------3---------------0---------------------------| 
G|---0-------0---0---2-------2---0---0-------0---0---0-------0---0---| 
D|-----0-------0-------0-------0-------2-------2-------2-------2-----| 
A|---------2---------------0---------------2---------------2---------| 
E|-3---------------2---------------0---------------0-----------------| 

Chorus 2: 
--------- 
See Verse 2 

Chorus 3: 
--------- 
   C              Em7             Am7                     Em7 
E|-------------------------------------------------------------------| 
B|-------1---------------3---------------1-------------1-------3-----| 
G|---0-------0---0---0-------0---0---0-------0---0-------0-------0---| 
D|-----2-------2-------0-------0-------2-------2-----2-------0-------| 
A|-3-------3-------2-------2-------0-------0-------0-------2---------| 
E|-------------------------------------------------------------------| 

Solo: 
------- 
   C              Em7             Am7       Em7 
E|-------------------------------------------------------| 
B|-------------0h3-------------0h3-3/5---3---------------| 
G|---------0h2-----------0---0---------------3h4-4\2-0---| 
D|-----0h2-------------0---------------------------------| 
A|-3---------------2---------------0---------2-----------| 
E|-------------------------------------------------------| 

   C              Em7           Am7                D9 
E|-------------------------------2-3-2-3-3/5-3\2h3-2p0h2p0-----------| 
B|-----------------------3---------------------------------3-1-0-----| 
G|-----------0h2---0---------2-----------------------------------2---| 
D|-----0h2-------------0---------------------------0-----------------| 
A|-3---------------2-------------0-----------------------------------| 
E|-------------------------------------------------------------------| 

Chorus 4: 
--------- 
   C              Em7             Am7              D9 
E|-------------------------------------------------------------------| 
B|-------1---------------3---------------1---------------------------| 
G|---0-------0---0---0-------0---0---0-------0-4\2---0h2p0-----------| 
D|-----2-------2-------0-------0-------2---------0---------4-2-0-----| 
A|-3-------3-------2-------2-------0-------0-----0---------------3---| 
E|-------------------------------------------------------------------| 

Chorus 5: 
--------- 
  Em7            Dadd9             Em 
E|-------------------------------------------------------0-----------| 
B|-------3---------------3---------------0---------------------------| 
G|-----------0---0---2-------2---0---0-------0---0---0-------0---0---| 
D|-----0-------0-------0-------0-------2-------2-------2-------2-----| 
A|-0h2-----2---------------0---------------2---------------2---------| 
E|-----------------2---------------0---------------0-----------------| 

Bridge: 
------- 
   C              Em7             Am7             Em7 
E|-x---------------x-------------------------------------------------| 
B|-1---------------3---------------------1---------------3-----------| 
G|-0---------------0-------------------------0---0-----------0---0---| 
D|-2---------------0-----------------0h2-------2-------0-------0-----| 
A|-3---------------2---------------0---------------0h2---------------| 
E|-x---------------x-------------------------------------------------| 

   C              Em7             Am7                     Em7 
E|-x---------------x-------------------------------------------------| 
B|-1---------------3---------------------1-------------1-------3-----| 
G|-0---------------0-------------------------0---0-------0-------0---| 
D|-2---------------0-----------------0h2-------2-----2-------0-------| 
A|-3---------------2---------------0---------------0-------2---------| 
E|-x---------------x-------------------------------------------------| 

Outro: 
------ 
   C              Em7            Asus4 
E|-x---------------x---------------0---------------------------------| 
B|-1---------------3---------------0---------------------------------| 
G|-0---------------0---------------2---------------------------------| 
D|-2---------------0---------------2---------------------------------| 
A|-3---------------2---------------0---------------------------------| 
E|-x---------------x---------------x---------------------------------| 
 
	  

Full key step upFull key step up
Half key step upHalf key step up
Half key step downHalf key step down
Full key step downFull key step down
Search Paypal
auto scroll beats size up size down change color hide chords drawings
tab show chords e-chords YouTube Clip e-chords hide all tabs e-chords go to top tab