Boyce Avenue

home > Boyce Avenue

Before It's Too Late Tab

Boyce Avenue

Difficulty: ExpertExpert

by gustsilva

tuner correct add songbook print version text version save to e-mail
chordsukulelecavacokeyboardtabbassdrumsharmonicsflute Guitar Pro
chords

Before It's Too Late

  		
Tuning: E A  D  G  C  G 


Acordes: 
 
  F    G   Am7   C 
--0----0----0----0---| 
--0----0----0----0---| 
--0----0----2----0---| 
--3----5----2----2---| 
--3----5----0----3---| 
--1----3-------------| 
 

Variação dos Acordes: 
 
  F    G    G    C   Am7 
--0----0----0----0----0---| 
--0----0----0----0----0---| 
--2----0----4----0----5---| 
--3----0----5----5----x---| 
--3----x----5----3----3---| 
--1----3----3---------5---| 
 

Intro: 
 
-0----0----0----0----0----0----0--| 
-0----0----0----0----0----0----0--| 
-0----0----0----0----0----0----0--| 
-3----5----7----5----3----5----3--| 
-3----5----7----5----3----5----3--| 
----------------------------------| 
 

Verse: 
 
-0----0----0----0----0----0----0--| 
-0----0----0----0----0----0----0--| 
-0----0----0----0----0----0----0--| 
-3----5----7----5----3----5----3--| 
-3----5----7----5----3----5----3--| 
----------------------------------| 
 

 
-0----0----0----0----0----0----0--| 
-0----0----0----0----0----0----0--| 
-0----0----0----0----0----0----0--| 
-3----5----7----5----3----5----2--| 
-3----5----7----5----3----5----3--| 
----------------------------------| 
 

Chorus: 
 
--0----0----0----0----0----0----0--| 
--0----0----0----0----0----0----0--| 
--0----0----2----0----0----0----2--| 
--3----5----2----3----3----0----2--| 
--3----5----0----3----3----x----0--| 
--1----3---------1----1----3-------| 
 

 
--0----0----0----0----0----0----0--| 
--0----0----0----0----0----0----0--| 
--0----0----2----0----0----0----0--| 
--3----5----2----3----3----0----5--| 
--3----5----0----3----3----x----3--| 
--1----3---------1----1----3-------| 
 


Bridge: 
 
--0----0----0----0----0----0----0--| 
--0----0----0----0----0----0----0--| 
--2----0----4----2----2----0----4--| 
--2----5----5----3----2----5----5--| 
--0----3----5----3----0----3----5--| 
------------3----1--------------3--| 
 

 
--0----0----0----0----0----0----0--| 
--0----0----0----0----0----0----0--| 
--2----0----4----2----2----4----0--| (Palm mute last chord) 
--2----5----5----3----2----5----3--| 
--0----3----5----3----0----5----3--| 
------------3----1---------3----1--| 
 


Last Chorus/Outro: 
 
--0----0----0----0----0----0----0--| 
--0----0----0----0----0----0----0--| 
--0----0----2----0----0----0----2--| 
--3----5----2----3----3----0----2--| 
--3----5----0----3----3----x----0--| 
--1----3---------1----1----3-------| 
 

 
--0----0----0----0----0----0----0---| 
--0----0----0----0----0----0----0---| 
--0----0----2----0----0----0----5---| 
--3----5----2----3----3----0----x---| 
--3----5----0----3----3----x----3---| 
--1----3---------1----1----3----5---| 
 

--0----0----0--------0----0--| 
--0----0----0--------0----0--| 
--0----0----5--------0----0--| 
--3----0----x--------3----0--| (abrupt stop) 
--3----x----3--------3----x--| 
--1----3----5--------1----3--| 
	  

Full key step upFull key step up
Half key step upHalf key step up
Half key step downHalf key step down
Full key step downFull key step down
Search Paypal
auto scroll beats size up size down change color hide chords drawings
tab show chords e-chords YouTube Clip e-chords hide all tabs e-chords go to top tab