Boyce Avenue

home > Boyce Avenue

Chasing Cars Tab

Boyce Avenue

Difficulty: EasyEasy

by gustsilva

tuner correct add songbook print version text version save to e-mail
chordsukulelecavacokeyboardtabbassdrumsharmonicsflute Guitar Pro
chords

Chasing Cars

  		Tuning: D A D E A E 



verse 1: (play 2x)(finger plucking) 
 
-----------------------------------------------------------------| 
---7---7---7---7---7---7---7---7---7---7---7---7---7---7---7---7-| 
-----------------------------------------------------------------| 
-7---7---7---7---7---7---7---7---6---6---6---6---6---6---6---6---| 
-0---------------------------------------------------------------| 
---------------------------------6-------------------------------| 
 

 
-----------------------------------------------------------------| 
---7---7---7---7---7---7---7---7---7---7---7---7---7---7---7---7-| 
-----------------------------------------------------------------| 
-7---7---7---7---7---7---7---7---7---7---7---7---7---7---7---7---| 
-5-------------------------------0-------------------------------| 
-----------------------------------------------------------------| 
 

Chorus 1: (finger plucking) 
 
-------0---------0---------0---------0---------0---------0-| 
-----0---------0---------0---------0---------0---------0---| 
---0---------0---------------------------------------------| 
-----------------------6---------6---------4---------4-----| 
-0---------0-----------------------------5---------5-------| 
---------------------6---------6---------------------------| 
 

 
-------0---------0-| 
-----0---------0---| 
---0---------0-----| 
-------------------| 
-0---------0-------| 
-------------------| 
 

verse 2: (finger plucking) 
 
-----------------------------------------------------------------| 
---7---7---7---7---7---7---7---7---7---7---7---7---7---7---7---7-| 
-----------------------------------------------------------------| 
-7---7---7---7---7---7---7---7---6---6---6---6---6---6---6---6---| 
-0-------0-------0-------0---------------------------------------| 
---------------------------------6-------6-------6-------6-------| 
 

 
-----------------------------------------------------------------| 
---7---7---7---7---7---7---7---7---7---7---7---7---7---7---7---7-| 
-----------------------------------------------------------------| 
-7---7---7---7---7---7---7---7---7---7---7---7---7---7---7---7---| 
-5-------5-------5-------5-------0-------0-------0-------0-------| 
-----------------------------------------------------------------| 
 

 
-----------------------------------------------------------------| 
---7---7---7---7---7---7---7---7---7---7---7---7---7---7---7---7-| 
-----------------------------------------------------------------| 
-7---7---7---7---7---7---7---7---6---6---6---6---6---6---6---6---| 
-0---0---0---0---0---0---0---0-----------------------------------| 
---------------------------------6---6---6---6---6---6---6---6---| 
 

 
-----------------------------------------------------------------| 
---7---7---7---7---7---7---7---7---7---7---7---7---7---7---7---7-| 
-----------------------------------------------------------------| 
-7---7---7---7---7---7---7---7---7---7---7---7---7---7---7---7---| 
-5---5---5---5---5---5---5---5---0---0---0---0---0---0---0---0---| 
-----------------------------------------------------------------| 
 

Chorus 2: (finger strumming) 
 
-0------0------0------0-| 
-0------0------0------0-| 
-0------0------0------0-| 
-7------6------4------7-| 
-0------7------5------0-| 
--------6---------------| 
 

Breakdown: (finger picking) 
 
-------------------------------------| 
-------------------------------------| 
-------------------------------------| 
-7-7-7-7-7-7-7-7-7-7-7-7-7-7/9-9-9\6-| 
-------------------------------------| 
-------------------------------------| 
 

 
---------------------------------| 
---------------------------------| 
---------------------------------| 
-6-6-6-6-6-6-6-6-6-6-6-6-7-7-6-6-| 
---------------------------------| 
---------------------------------| 
 

 
-------------------------------------------------| 
--------------------------------------------<12>-| 
--------------------------------------------<12>-| 
-4-4-4-4-4-4-4-4-4-4-4-4/6-6---6^7---------------| 
-----------------------------7-----0-------------| 
-------------------------------------------------| 
 

Chorus 3: (play 2x)(pick strumming) 
 
-0------0------0------0---0---0--| 
-0------0------0------7-/-9-/-12-| 
-12-----7------9------0---0---0--| 
-11-----6------0------7-/-9-/-11-| 
-0------7------0------0---0---0--| 
--------6------0-----------------| 
 

Outro: (raked with pick) 
-0------0------0------0-| 
-0------0------0------0-| 
-0------7------9------0-| 
-7------6------0------7-| 
-0------7------0------0-| 
--------6------0------7-| 
	  

Search Paypal
auto scroll beats size up size down change color hide chords drawings
tab show chords e-chords YouTube Clip e-chords hide all tabs e-chords go to top tab