Boyce Avenue

home > Boyce Avenue

Hanging By A Moment Tab

Boyce Avenue

Difficulty: nolevelnolevel

by andrsouza

tuner correct add songbook print version text version save to e-mail
chordsukulelecavacokeyboardtabbassdrumsharmonicsflute Guitar Pro
chords

Hanging By A Moment

  		
Intro 

                          Repeat about 6 times         N.H. 
d |--------||----------------------------------||-------12-------------------| 
A |--------||----------------------------------||-------12-------------------| 
F#|--------||*--------------------------------*||----------------------------| 
D |--------||*-------0-2-0-------0---5-4-0----*||----------------------------| 
A |--------||------0---------0-----------------||----------------------------| 
D |--7\----||----0---------0---0---0-----------||----------------------------| 

Pre Chorus 

d |--------2/4-4-------0---2--------------2/4-4-------0---5-4-2-0------------| 
A |------0---------------0---0----------0---------------0--------------------| 
F#|----0------------0----------0------0-------------0------------------------| 
D |------------------------------0-------------------------------------------| 
A |--2---------0-------------------2----------0------------------------------| 
D |---------------0------------------------------4---------------------------| 

d |--------2/4-4-------0---2--------------2/4-4------------------------------| 
A |------0---------------0---0----------0------------------------------------| 
F#|----0------------0----------0------0--------------------------------------| 
D |------------------------------0-------------------------------------------| 
A |--2---------0-------------------2----------0------------------------------| 
D |---------------0----------------------------------------------------------| 

Verse 
                                                     Repeat once 
d ||-----------------------------------------------------------------------|| 
A ||-----------------------------------------------------------------------|| 
F#||*---------------------------------------------------------------------*|| 
D ||*-------0-2-0-------0---5-4-0------0-2-0-------0---5-4-2p0------------*|| 
A ||-----0---------0----------------0---------0----------------------------|| 
D ||---0---------0---0---0--------0---------0---0---0----------------------|| 

d|---------------------------------------------------------------------------| 
A|---------------------------------------------------------------------------| 
F#|--------------------------------------------------------------------------| 
D|------0-2-0--------0-------------------------------------------------------| 
A|----0---------0------------------------------------------------------------| 
D|--0---------0---0----0-----------------------------------------------------| 


Chorus 

d ||------------------------------------------------0---0--0------------------| 
A ||------------------------------------------------0---0--0---0-0-0-0--------| 
F#||*-----------------------------------------------0---0--0------------------| 
D ||*--4--4----2--0----0--0----5-4-2-0----4--4--2---0---0--0---5-4-2-0--------| 
A ||---2--2----0--0----0--0----0-0-0-0----2--2--0-----------------------------| 
D ||--------------0----0--0-------------------------4---4--4------------------| 

d |---------------------------------------------------------------------------| 
A |---------------------------------------------------------------------------| 
F#|---------------------------------------------------------------------------| 
D |--4--4----2--0----0--0----5-4-2-0----4-4----2--0---------------------------| 
A |--2--2----0--0----0--0----0-0-0-0----2-2----0--0---------------------------| 
D |-------------0----0--0-------------------------0---------------------------| 

   First ending               Second Ending 
d |----------------------||---------------------------------------------------| 
A |----------------------||---------------------------------------------------| 
F#|-----------0-0-0-0---*||---------------------------------------------------| 
D |--0--0---------------*||----0-0-0-0-0-0-0----------------------------------| 
A |--0--0-----7-5-4-2----||----0-0-0-0-0-0-0----------------------------------| 
D |--0--0----------------||----0-0-0-0-0-0-0----------------------------------| 

Bridge 

d |-------0--0--------0--0--------0--0--------0--0-----------0---0---------0--0--| 
A |-------0--0--------0--0--------0--0--------0--0-----------0---0---------0--0--| 
F#|-------0--0--------0--0--------0--0--------0--0----------12--12--------10--0--| 
D |--5----5--5---5----5--5---5----5--5---5----5--5----0--0---0---0--0--0---0--0--| 
A |---------------------------------------------------0--0--12--12--0--0--10--0--| 
D |--4h5--5--5---4h5--5--5---4h5--5--5---4h5--5--5----0--0----------0--0---------| 

d |---------0---0----------0--0---------0--0-------0--0-------0--0-------0--0--| 
A |---------0---0----------0--0---------0--0-------0--0-------0--0-------0--0--| 
F#|--------12--12---------10--0---------0--0-------0--0-------0--0-------0--0--| 
D |--0--0---0---0--0--0----0--0----4/5--5--5--4/5--5--5--5-5--5--5--4/5--5--5--| 
A |--0--0--12--12--0--0---10--0------------------------------------------------| 
D |--0--0----------0--0------------4/5--5--5--4/5--5--5--5-5--5--5--4/5--5--5--| 

d |-------0--0-------0--0-------0--0--------------------0--0--------0--0------| 
A |-------0--0-------0--0-------0--0--------------------0--0--------0--0------| 
F#|-------------------------------------0-0-0-0---------5--5--------5--5------| 
D |--2h4--4--4--2h4--4--4--2h4--4--4--------------5--5--5--5--5--5--5--5------| 
A |--2----2--2--2----2--2--2----2--2----5-4-2-0-------------------------------| 
D |-----------------------------------------------5--5--------5--5------------| 

d |--------0--0--------0--0----0--0---0--0---0-0------------------------------| 
A |--------0--0--------0--0----0--0---0--0---0-0------------------------------| 
F#|--------7--7--------0--0----2--2---2--2---2-2------0-0-0-0-----------------| 
D |--7--7--7--7--7--7--7--7----2--2---2--2---2-2------------------------------| 
A |-------------------------------------------------/10-9-7-5-----------------| 
D |--7--7--------7--7----------2--2---2--2---2-2------------------------------| 

d |--------0--0--------0--0----------0--0--------0--0----0--------------------| 
A |--------0--0--------0--0----------0--0--------0--0----0--------------------| 
F#|--------5--5--------5--5----------7--7--------0--0----2--------------------| 
D |--5--5--5--5--5--5--5--5----7--7--7--7--7--7--7--7----2--------------------| 
A |---------------------------------------------------------------------------| 
D |--5--5--------5--5----------7--7--------7--7----------2--------------------| 


************************************ 

| h   Hammer-on 
| p   Pull-off 
| N.H. Natural Harmmonic 
| /   Slide up 
| \   Slide down 

************************************ 
	  

Search Paypal
auto scroll beats size up size down change color hide chords drawings
tab show chords e-chords YouTube Clip e-chords hide all tabs e-chords go to top tab