Boyce Avenue

home > Boyce Avenue

Everything Tab

Boyce Avenue

Difficulty: ExpertExpert

by ubirbomfim

tuner correct add songbook print version text version save to e-mail
chordsukulelecavacokeyboardtabbassdrumsharmonicsflute Guitar Pro
chords

Everything

  		Intro: 

e|---------0---------------0-------| 
B|-------5---4---0-----0-----0---0-| 
G|-----6-------6-----6---6-----6---| x2 
D|---6-----------------------------| 
A|-4-------------0-----------------| 
E|-----------4---------------------| 


verse 1: 

e|---------0---------------0-------| 
B|-------5---4---0-----0-----0---0-| 
G|-----6-------6-----6---6-----6---| x8 
D|---6-----------------------------| 
A|-4-------------0-----------------| 
E|-----------4---------------------| 


Interlude: 

e|---------0---------------0-------| 
B|-------5---4---0-----0-----0---0-| 
G|-----6-------6-----6---6-----6---| x2 
D|---6-----------------------------| 
A|-4-------------0-----------------| 
E|-----------4---------------------| 


verse 2: 

e|---------0---------------0-------| 
B|-------5---4---0-----0-----0---0-| 
G|-----6-------6-----6---6-----6---| x8 
D|---6-----------------------------| 
A|-4-------------0-----------------| 
E|-----------4---------------------| 


Chorus 1: 

e|-------0-------0---------0-------------0-----------------0-------| 
B|-----4-----4---------0-----0---0-----4-----4---0-----------4---4-| 
G|-------------------2---2-----2-----4-----------------4-------4---|  
D|---------------------------------------------------2---2---------| 
A|---2-----------0-----------------4---------2---0-----------------| 
E|-0---------4-----------------------------------------------------| 

e|-------0-------0---------0-------------0-------------------------| 
B|-----4-----4---------0-----0---0-----4-----4---0-----------------| 
G|-------------------2---2-----2-----4-----------------------------|  
D|-----------------------------------------------------------------| 
A|---2-----------0-----------------4---------2---0-----------------| 
E|-0---------4-----------------------------------------------------| 

Interlude ?? x2 

verse 3 ?? x8 

Chorus 2: 

e|-------0-------0---------0-------------0-----------------0-------| 
B|-----4-----4---------------4---4-----4-----4---0-----------4---4-| 
G|---------------------4-------4-----4-----------------4-------4---| x3 
D|-------------------2---2---------------------------2---2---------| 
A|---2-----------0-------------2---4---------2---0-----------------| 
E|-0---------4-----------------------------------------------------| 

e|-------0-------0---------0-------------0-------------------------|-----| 
B|-----4-----4---------------4---4-----4-----4---0-----------------|-----| 
G|---------------------4-------4-----4-----------------------------|-----| 
D|-------------------2---2-----------------------------------------|-----| 
A|---2-----------0-------------2---4---------2---0-----------------|-----| 
E|-0---------4-----------------------------------------------------|-12\-| 


Bridge(strum): 

e|-0---------------0---------------0---------------0---------------| 
B|-5---------------0---------------0---------------0---------------| 
G|-6---------------2---------------1---------------4---------------| x2 
D|-6---------------2---------------2---------------4---------------| 
A|-4---------------0---------------2---------------2---------------| 
E|---------------------------------0-------------------------------| 


Chorus 3(strum): 

e|-0---------x---0-----------------0---------0---0-----------------| 
B|-0---------0---0-----------------5---------0---0-----------------| 
G|-1---------x---2-----------------6---------4---2-----------------| x6 
D|-2---------6---2-----------------6---------4---2-----------------| 
A|-2---------6---0-----------------4---------2---0-----------------| 
E|-0---------4-----------------------------------------------------| 


Outro: 

e|-----0-0-------0-----------0---------0-0-------0---------0-------| 
B|-----4-4---4-------------------------4-4---4---------------------| 
G|-------------------4---4-----4-----4---------------4---4---4---4-| 
D|---------------------2---------2---------------------2-------2---|  
A|---2-----------0-----------------4---------2---0-----------------| 
E|-0---------4-----------------------------------------------------| 

e|-----0-0-------0---------0-----------0-0-------0-----------------| 
B|-----4-4---4-------------------------4-4---4---------------------| 
G|-------------------4---4---4---4---4-----------------------------| 
D|---------------------2-------2-----------------------------------|  
A|---2-----------0-----------------4---------2---0-----------------| 
E|-0---------4-----------------------------------------------------|  
	  

Search Paypal
auto scroll beats size up size down change color hide chords drawings
tab show chords e-chords YouTube Clip e-chords hide all tabs e-chords go to top tab