Boyce Avenue

home > Boyce Avenue

Say Something Tab

Boyce Avenue

Difficulty: ExpertExpert

by jov%2Dcorrea

tuner correct add songbook print version text version save to e-mail
chordsukulelecavacokeyboardtabbassdrumsharmonicsflute Guitar Pro
chords

Say Something

  		------------------------------------------------------------------------------- 
                             SONG NAME - Band Name 
------------------------------------------------------------------------------- 
Tabbed by: 
E-mail: 

Tuning: 
Capo on 6 fret 
(Intro) 
e|---3--3--3--3--3--------------------------| 
B|------------------------------------------| 
G|------------------------------------------| 
D|------------------------------------------| 
A|------------------------------------------| 
E|------------------------------------------| 

(Verse) 
e|-----------3-------3--------3------3-------|  
B|----------3----------------3---------------| 
G|-------0---------0------0--------0---------| 
D|-----0---------0------0--------0-----------| 
A|-------------------------------------------| 
E|------------3---------------3--------------| 

(Chorus) 
e|----------3-------0-------0-------3----------------------------------------| 
B|---------------------------------------------------------------------------| 
G|--------0-------0-------0-------0------------------------------------------| 
D|------0-------2-------2-------0--------------------------------------------| 
A|----2--------2-------3-----------------------------------------------------| 
E|---------------------------3-----------------------------------------------| 

The tabs aren't good but you can play the song similiar to the original cover  

************************************ 

| /   slide up 
| \   slide down 
| h   hammer-on 
| p   pull-off 
| ~   vibrato 
| +   harmonic 
| x   Mute note 
| b   Bend 
| pb  Pre-bend 
| br  Bend release 
| pbr Pre-bend release 
| brb Bend release bend 

************************************ 
	  

Search Paypal
auto scroll beats size up size down change color hide chords drawings
tab show chords e-chords YouTube Clip e-chords hide all tabs e-chords go to top tab