Boyce Avenue

home > Boyce Avenue

Water Runs Dry Tab

Boyce Avenue

Difficulty: BeginnerBeginner

by andrsouza

tuner correct add songbook print version text version save to e-mail
chordsukulelecavacokeyboardtabbassdrumsharmonicsflute Guitar Pro
chords

Water Runs Dry

  		   
Intro: 

e||------------------------------|--------------------------| 
B||------------------------------|--------------------------| 
G||---------0----------0--0h2----|--/5--4P2-------4---------| 
D||------2------0h2----2---------|---2------------0---------| 
A||--3---------------------------|---0----------------------| 
E||------------------------------|----------------3---------| 

e|---------------------------|---------------------| 
B|---------------------------|---------------------| 
G|--------------0---------0--|------------------0--| 
D|-----------2-----0h2----2--|--2p0----2--0h2---0--| 
A|--0--2--3------------------|---------0-----------| 
E|3--------------------------|------------------3--| 


Verse: 
    
e||--------------------------|--------------------|--------------------------|------------------| 
B||--1-----------3--------1--|--------0-----------|--1-----------3--------1--|--0-----------0---| 
G||-----0-----0--0--0-----2--|--2--------0-----0--|-----0-----0--0--0-----2--|----------0-------| 
D||--------2-----------0-----|-----2--------0-----|--------2-----------0-----|------0-----------| 
A||--3--------------------0--|--------------------|--3--------------------0--|------------------| 
E||--------------3-----------|--------3-----------|--------------3-----------|--3---------------| 


   
e||--------------------------|--------------------|-------------------------------| 
B||--1-----------3--------1--|--------0-----------|--1-----------3--------1----0--| 
G||-----0-----0--0--0-----2--|--2--------0-----0--|-----0-----0--0--0-----2----0--| 
D||--------2-----------0-----|-----2--------0-----|--------2-----------0----------| 
A||--3--------------------0--|--------------------|--3--------------------0-------| 
E||--------------3-----------|--------3-----------|--------------3-------------3--| 



Bridge: 
                                              TAP     TAP 
E||--------------------------------------------------------0------| 
B||----------------------------------------1-------0-------3------| 
G||---2---------------2---1----------------2-------0-------2------| 
D||-------3-------3-----------2-------0---------------------------| 
A||-----------3-------------------2--------0----------------------| 
E||---1-------------------0------------------------3-------2------| 

   
Chorus: 

e||--0-------------------1---------------1---------------| 
B||------1-------3-------1---1---------------1-------1---| 
D||----------2-------4-----------2---------------2-------|  (2x) 
G||----------------------0-----------0-------------------|   
A||------------------------------------------------------| 
E||--1-----------0---------------------------------------| 



e||---0------------------------------2--|----1---------3----------------| 
B||---1---1-------3------------1-----3--|----3---------3----------------| 
D||-----------2---4---4--------2-----2--|----2---------0-----------5----| 
G||----------------------------------0--|----0---------2-----------0----| 
A||----------------------------0--------|-------------------------------| 
E||---1-----------0---------------------|--------------------------3----| 
                        runs   dry...        biggest   mistake  ...lives 

    

    
e||----------------|--------------------------|--------------------| 
B||----------------|--1-----------3--------1--|--------0-----------| 
D||----------------|-----0-----0--0--0-----2--|--2-----------------| 
G||----------------|--------2-----------0-----|-----2--------------| 
A||-------0----2---|--3--------------------0--|--------------0--2--| 
E||---3------------|--------------3-----------|--------3--3--------| 
   ...it  ba~  by| 

e|--------------------------|-----------------| 
B|--1-----------3--------1--|--------0--------| 
G|-----0-----0--0--0-----2--|--2--------------| 
D|--------2-----------0-----|-----2-----------| 
A|--3--------------------0--|-----------------| 
E|--------------3-----------|--------3--------| 



          
Repeat Verse 

Repeat Bridge 

Repeat Chorus 

Repeat Bridge 

Repeat Chorus 



Outro: 


e||----------------|--------------------------|--------------------| 
B||----------------|--1-----------3--------1--|--------0-----------| 
D||----------------|-----0-----0--0--0-----2--|--2-----------------| 
G||----------------|--------2-----------0-----|-----2--------------| 
A||-------0----2---|--3--------------------0--|--------------0--2--| 
E||---3------------|--------------3-----------|--------3--3--------| 
   ...it  ba~  by| 

e|--------------------------|-----------------| 
B|--1-----------3--------1--|--------0--------| 
G|-----0-----0--0--0-----2--|--2--------------|   
D|--------2-----------0-----|-----2-----------|  (2x) 
A|--3--------------------0--|-----------------| 
E|--------------3-----------|--------3--------| 



                    Let ring   
e||----------------------------| 
B||-------------------1~-------| 
D||-------------------0~-------| 
G||----------------------------| 
A||--------0----2-----3~-------| 
E||---3------------------------|  
	  

Search Paypal
auto scroll beats size up size down change color hide chords drawings
tab show chords e-chords YouTube Clip e-chords hide all tabs e-chords go to top tab