Boyce Avenue

home > Boyce Avenue

Counting Stars The Monster Tab

Boyce Avenue

Difficulty: EasyEasy

by PAULLET3

tuner correct add songbook print version text version save to e-mail
chordsukulelecavacokeyboardtabbassdrumsharmonicsflute Guitar Pro
chords

Counting Stars The Monster

  		


Chorus 1(p.m.): 

  |------------->  x3  <------------|-----> 4th time 
D#|---------------------------------|-------------------------x------------| 
A#|---------------------------------|-------------------------0------------| 
F#|---4-2-------6-7-----2-4---------|---4-2-------6-7-----2-4-0------------| 
C#|-------4---7-------2-------5-4-0-|-------4---7-------2-----0------------| 
G#|-2-------5-------0---------------|-2-------5-------0-------x------------| 
C#|-------------------------5-------|-------------------------5------------| 


verse 1(p.m.): 

D#|-----------------------------------------------------------------| 
A#|-----------------------------------------------------------------| 
F#|-4-4-4-4-4-4-4-4-7-7-7-7-7-7-7-7-2-2-2-2-2-2-2-2-----------------| x2 
C#|-4-4-4-4-4-4-4-4-7-7-7-7-7-7-7-7-2-2-2-2-2-2-2-2-0-0-0-0-0-0-0-0-| 
G#|-2-2-2-2-2-2-2-2-5-5-5-5-5-5-5-5-0-0-0-0-0-0-0-0-x-x-x-x-x-x-x-x-| 
C#|-------------------------------------------------5-5-5-5-5-5-5-5-| 
                                                                        
D#|-----------------------------------------------------------------|--|-x-| 
A#|---------------2-------------5-7---------------------------------|--|-0-| 
F#|---4-2-----2-4-----7-6-----6---------4---2-4-2-------0-----------|x2|-0-| 
C#|---------4---------------7---------2-----------4---0-----4-5-4-0-|--|-0-| 
G#|-2-----2---------5-----5---------0-----0-------------------------|--|-x-| 
C#|-------------------------------------------------5-----5---------|--|-5-| 


Chorus 2: 

D#|-x-x-x-x-x-x-x-x-x-x-x-x-x-x-x-x-| 
A#|-3-3-3-7-7-7-7-7-2-2-2-0-0-0-0-0-| 
F#|-4-4-4-7-7-7-7-7-2-2-2-0-0-0-0-0-| x8 
C#|-4-4-4-7-7-7-7-7-2-2-2-0-0-0-0-0-| 
G#|-2-2-2-5-5-5-5-5-0-0-0-x-x-x-x-x-| 
C#|-----------------------5-5-5-5-5-| 


verse 2(p.m.): 
                                                              
D#|-----------------------------------------------------------------| 
A#|-----------------------------------------------------------------| 
F#|-4-4-4-4-4-4-4-4-7-7-7-7-7-7-7-7-2-2-2-2-2-2-2-2-----------------| 
C#|-4-4-4-4-4-4-4-4-7-7-7-7-7-7-7-7-2-2-2-2-2-2-2-2-0-0-0-0-0-------| 
G#|-2-2-2-2-2-2-2-2-5-5-5-5-5-5-5-5-0-0-0-0-0-0-0-0-x-x-x-x-x-------| 
C#|-------------------------------------------------5-5-5-5-5-------| 

D#|-----------------------------------------------------------------| 
A#|-----------------------------------------------------------------| 
F#|-4-4-4-4-4-4-4-4-7-7-7-7-7-7-7-7-2-2-2-2-2-2-2-2-----------------| 
C#|-4-4-4-4-4-4-4-4-7-7-7-7-7-7-7-7-2-2-2-2-2-2-2-2-0-0-0-0-0-0-0-0-| 
G#|-2-2-2-2-2-2-2-2-5-5-5-5-5-5-5-5-0-0-0-0-0-0-0-0-x-x-x-x-x-x-x-x-| 
C#|-------------------------------------------------5-5-5-5-5-5-5-5-| 

D#|-----------------------------------------------------------------|--|-x-| 
A#|---------------2-------------5-7---------------------------------|--|-0-| 
F#|---4-2-----2-4-----7-6-----6---------4---2-4-2-------0-----------|x2|-0-| 
C#|---------4---------------7---------2-----------4---0-----4-5-4-0-|--|-0-| 
G#|-2-----2---------5-----5---------0-----0-------------------------|--|-x-| 
C#|-------------------------------------------------5-----5---------|--|-5-| 


Chorus 2 


Bridge: 

D#|-----------------0-0-0-0-0-0-0-0-| 
A#|-5-5-5-5-5-5-5-5-5-5-5-5-5-5-5-5-| 
F#|---------------------------------| 
C#|---------------------------------| 
G#|---------------------------------| 
C#|---------------------------------| 

D#|-0-0-0-0-0-0-0-0-0-0-0-0-0-0-0-0-0-0-0-0-0-0-0-0-0-0-0-0-0-0-0-0-| 
A#|-5-5-5-3-3-3-3-3-2-2-2-3-3-3-3-3-5-5-5-3-3-3-3-3-2-2-2-3-3-3-3-3-| 
F#|-----------------------------------------------------------------| 
C#|-----------------------------------------------------------------| 
G#|-----------------------------------------------------------------| 
C#|-----------------------------------------------------------------| 

D#|-0-0-0-0-0-0-0-0-0-0-0-0-0-0-0-0-0-0-0-0-0-0-0-0-0-0-0-0---------|------| 
A#|-5-5-5-3-3-3-3-3-2-2-2-3-3-3-3-3-5-5-5-3-3-3-3-3-2-2-2-3---------|------| 
F#|-4-4-4-2-2-2-2-2-2-2-2-2-2-2-2-2-4-4-4-2-2-2-2-2-2-2-2-2---------|------| 
C#|-------0-0-0-0-0-0-0-0-0-0-0-0-0-0-0-0-0-0-0-0-0-0-0-0-0---------|-xx---| 
G#|-----------------0-0-0-----------0-0-0-0-0-0-0-0-0-0-0-0---------|-xx---| 
C#|-----------------------------------------------------------------|-xx12\| 


Chorus 2 


************************************ 

| \     Slide down 
| x     Mute note 
| p.m.  Palm mute 

************************************ 

 
	  

Search Paypal
auto scroll beats size up size down change color hide chords drawings
tab show chords e-chords YouTube Clip e-chords hide all tabs e-chords go to top tab