Boyce Avenue

home > Boyce Avenue

Lovestoned Tab

Boyce Avenue

Difficulty: BeginnerBeginner

by gustsilva

tuner correct add songbook print version text version save to e-mail
chordsukulelecavacokeyboardtabbassdrumsharmonicsflute Guitar Pro
chords

Lovestoned

  		

e|--------------------------------- 
B|--------------------------------- 
G|---------------------------------  2x(Intro) -- 4x (primeiro estrofe)  
D|----------0h2-2------------------ 
A|----0-1-2------------------------ 
E|-0--------------0----------------     



e|------------------------------ 
B|------------------------------ 
G|------------------------------ 
D|--5-4-2-4-2-0-2--------------- 
A|----------------2-1-0--------- 
E|------------------------------   


e|------------------------------------------------ 12-  
B|--------------------------------------------10h12--- 
G|----------------------------------------------------    
D|----------0h2-2-------------5-4-0-1-----------------  
A|----0-1-2-------------0-1-2------------------------- 
E|-0--------------0---0---------------0---------------  

segundo estrofe 

e|--------------------------------- 
B|--------------------------------- 
G|-----------------------------7h9-     
D|----------0h2-2-----------7h9---- 
A|----0-1-2------------------------ 
E|-0--------------0----------------  

e|---------------------------------------- 
B|------------------------------5-4-2----- 
G|------------------------------------5-2- 
D|----------0h2-2------------------------- 
A|----0-1-2------------------------------- 
E|-0--------------0-----------------------  

e|--------------------------------- 
B|--------------------------------- 
G|-----------------------------7h9-     
D|----------0h2-2-----------7h9---- 
A|----0-1-2------------------------ 
E|-0--------------0----------------   

e|---------------------- 
B|---------------------- 
G|----------------------     
D|----------0h2-2------- 
A|----0-1-2------------- 
E|-0--------------0-----  



e|------------------------------ 
B|------------------------------ 
G|------------------------------ 
D|--5-4-2-4-2-0-2--------------- 
A|----------------2-1-0--------- 
E|------------------------------  
 
	  

Search Paypal
auto scroll beats size up size down change color hide chords drawings
tab show chords e-chords YouTube Clip e-chords hide all tabs e-chords go to top tab