Boyce Avenue

home > Boyce Avenue

We Are Never Ever Getting Back Together Tab

Boyce Avenue

Difficulty: BeginnerBeginner

by deivcavalcanti

tuner correct add songbook print version text version save to e-mail
chordsukulelecavacokeyboardtabbassdrumsharmonicsflute Guitar Pro
chords

We Are Never Ever Getting Back Together

  		


Intro: 

C|--0----0---0---0--| 
C|-0-0--0-0-0-0-0-0-| 
F|------------------| 
C|4---2----0---2----| 
G|2---0--------0----| 
C|---------5--------| 

Verse: 

C|-----0-------0-------0-------0-------0-------0-------0-------0-------| 
C|---0---0---0---0---0---0---0---0---0---0---0---0---0---0---0---0-----| 
F|---------------------------------------------------------------------|  x3 
C|-4-------4-------2-------2-------0-------0-------2-------2-----------| 
G|2-2-2-2-2-2-2-2-0-0-0-0-0-0-0-0-----------------0-0-0-0-0-0-0-0------| 
C|--------------------------------5-5-5-5-5-5-5-5----------------------| 

Chorus: 

C|-------------------| 
C|-------------------| 
F|-------------------| 
C|4---2----0---7---2-|  x2 
G|2---0--------5---0-| 
C|---------5---------| 

C|--0---2----5--------| 
C|--------------------| 
F|--------------------| 
C|-4---2----0---7---2-| 
G|2---0---------5---0-| 
C|---------5----------| 

C|--0---2----5--------| 
C|--------------------| 
F|--------------------| 
C|-4---2--------------| 
G|2---0-----0---------| 
C|---------5----------| 

Verse: 

C|-----0-------0-------0-------0-------0-------0-------0-------0-------| 
C|---0---0---0---0---0---0---0---0---0---0---0---0---0---0---0---0-----| 
F|---------------------------------------------------------------------|  x2 
C|-4-------4-------2-------2-------0-------0-------2-------2-----------| 
G|2-2-2-2-2-2-2-2-0-0-0-0-0-0-0-0-----------------0-0-0-0-0-0-0-0------| 
C|--------------------------------5-5-5-5-5-5-5-5----------------------| 

Chorus: 

C|---0-------2-------5---------------------| 
C|-----------------------------------------| 
F|-----------------------------------------| 
C|-4---4-4-2---2-2-0---0-0-7-7-2-2---------|  x4 
G|2-2-2-2-0-0-0-0---------5-5-0-0----------| 
C|----------------5-5-5-5------------------| 

C|---5-------------------------------------------------| 
C|-----------------------------------------------------| 
F|-----------------------------------------------------| 
C|-0---0-0--7-7-7-7-2-2-2-2-4-4------------------------|  x4 
G|---------5-5-5-5-0-0-0-0-2-2-------------------------| 
C|5-5-5-5----------------------------------------------| 

C|0---2----5---5----| 
C|------------------| 
F|------------------| 
C|4---2----0---7-2--| 
G|2---0--------5-0--| 
C|---------5--------| 


Outro 

C|---0-------2-------5---------------------| 
C|-----------------------------------------| 
F|-----------------------------------------| 
C|-4---4-4-2---2-2-0---0-0-7-7-2-2---------| X4 
G|2-2-2-2-0-0-0-0---------5-5-0-0----------| 
C|----------------5-5-5-5------------------| 

C|0---2----5-------| 
C|-----------------| 
F|-----------------| 
C|4---2----0-------| 
G|2---0------------| 
C|---------5-------| 
	  

Search Paypal
auto scroll beats size up size down change color hide chords drawings
tab show chords e-chords YouTube Clip e-chords hide all tabs e-chords go to top tab