Boyce Avenue

home > Boyce Avenue

All Of Me Tab

Boyce Avenue

Difficulty: BeginnerBeginner

by joaoewerton

tuner correct add songbook print version text version save to e-mail
chordsukulelecavacokeyboardtabbassdrumsharmonicsflute Guitar Pro
chords

All Of Me

  		 
  
Tuning: In original cover by Boyce Avenue sixth string is tuning on D but I playing this song on standart tuning. 
Intro: 
e|-------------------------------------------| 
B|-------0-------------------0---------------| 
G|-----0---0--4h5-4p0------0---0--0h2--------| 
D|-0h2--------5--------0h2--------0----------| 
A|------------3------------------------------| 
E|-0-------------------3---------------------| 
Verse: 

   Em      C      G       D 
e|-----------------------------| 
B|-0---------------------------| 
G|-0-------0------0-------2----|         x4 
D|-2-------2------0-------0----| 
A|---------3-------------------| 
E|-0--------------3-------2----| 

Pre-Chorus 

e|-------3--------------3------|-------5------|----------4p3------| 
B|-----0---0---0------0---0---0|-----0---0---0|------3-------3----| 
G|-4h5-------5------5-------5--|---0-------0--|----2---2-------2--| 
D|-----------------------------|--------------|-------------------| 
A|-0--------------0------------|--------------|--0----------------| 
E|-----------------------------|-3------------|-------------------| 

e|-------3--------------3------|-------5------|--------| 
B|-----0---0---0------0---0---0|-----0---0---0|-12(AH)-| 
G|-4h5-------5------5-------5--|---0-------0--|-12(AH)-| 
D|-----------------------------|--------------|-12(AH)-| 
A|-0--------------0------------|--------------|--------| 
E|-----------------------------|-3------------|-12(AH)-| 
Chorus: 
         G                   Em                  C                   D 
e|----------------|--|----------------|--|----------------|--|----------------|--| 
B|-------0--------|--|-------0--------|--|-------1--------|--|-------3--------|--| 
G|-----0-----0---0|x2|-----0-----0---0|x2|-----0-----0---0|x2|-----0-----0---0|x2|   }Repeat x2 
D|---0---------0--|--|---2---------2--|--|---2---------2--|--|---4---------4--|--| 
A|----------------|--|----------------|--|-3--------------|--|-5--------------|--| 
E|-3--------------|--|-0--------------|--|----------------|--|----------------|--| 
         Em               C                G                D 
e|----------------|----------------|----------------|------------------| 
B|-------0--------|-------1--------|-------0--------|-------3----------| 
G|-----0-----0---0|-----0-----0---0|-----0-----0---0|-----2-----2---2--| 
D|---2---------2--|---2---------2--|---0---------0--|---0---------0----| }Repeat x2 
A|----------------|-3--------------|----------------|------------------| 
E|-0--------------|----------------|-3--------------|-2----------------| 
Sorry for my mistakes and 
Thanks for a watching!!! 

************************************ 

| /   slide up 
| \   slide down 
| h   hammer-on 
| p   pull-off 
| ~   vibrato 
| +   harmonic 
| x   Mute note 
| b   Bend 
| pb  Pre-bend 
| br  Bend release 
| pbr Pre-bend release 
| brb Bend release bend 

************************************ 
	  

Full key step upFull key step up
Half key step upHalf key step up
Half key step downHalf key step down
Full key step downFull key step down
Search Paypal
auto scroll beats size up size down change color hide chords drawings
tab show chords e-chords YouTube Clip e-chords hide all tabs e-chords go to top tab