Boyce Avenue

home > Boyce Avenue

Daylight Tab

Boyce Avenue

Difficulty: ExpertExpert

by abelamin

tuner correct add songbook print version text version save to e-mail
chordsukulelecavacokeyboardtabbassdrumsharmonicsflute Guitar Pro
chords

Daylight

  		
Intro: (2x) 

d|-----0---| 
d|-------0-| 
A|---12----| 
D|-12------| 
A|---------| 
D|---------| 

Verse: 
     8x                     2x                    1x 

d|-----0---|-----0-------0-------0-------0---|-----<12>---| 
d|-------0-|-------0-------0-------0-------0-|--------<12>| 
A|---12----|---12------12------12?-----12----|---12-------| 
D|-12------|-0---------------9---------------|------------| 
A|---------|---------10--------------10------|-10---------| 
D|---------|---------------------------------|------------| 


Chorus: (4x) 

d|-0--0--0--0-| 
d|-0--0--0--0-| 
A|-0--0--0--0-| 
D|-0--9--5--0-| 
A|-0--9--5--0-| 
D|-0--9--5--0-| 

Bridge: 

d|-0--0--0--0--0--0--0--0--0--| 
d|-0--0--0--0--0--0--0--0--0--| 
A|-0--0--0--0--0--0--0--0--0--| 
D|-7--9--5--0--7--9--5--5--5--| 
A|-7--9--5--0--7--9--5--5--5--| 
D|-7--9--5--0--7--9--5--5--5--| 



Variation (2nd verse) 
     3x       1x         3x       1x  

d|-----0---|-----0---|-----0---|-----0---| 
d|-------0-|---------|-------0-|---------| 
A|---12----|---12--0-|---12----|---12--0-| 
D|-12------|-14------|-12------|-14------| 
A|---------|---------|---------|---------| 
D|---------|---------|---------|---------| 


                  2x                    1x 

d|-----0-------0-------0-------0---|-----<12>---| 
d|-------0-------0-------0-------0-|--------<12>| 
A|---12------12------12?-----12----|---12-------| 
D|-0---------------9---------------|------------| 
A|---------10--------------10------|-10---------| 
D|---------------------------------|------------| 
	  

Search Paypal
auto scroll beats size up size down change color hide chords drawings
tab show chords e-chords YouTube Clip e-chords hide all tabs e-chords go to top tab