Boyce Avenue

home > Boyce Avenue

Fix You Tab

Boyce Avenue

Difficulty: BeginnerBeginner

by robepoiel

tuner correct add songbook print version text version save to e-mail
chordsukulelecavacokeyboardtabbassdrumsharmonicsflute Guitar Pro
chords

Fix You

  		
Tuning: E A D G B e

INTRO 
|-------------|----------------| 
|----16-15\11-|-------16-15\11-| 
|-12----------|-10-12----------| 
|-------------|----------------| 
|-------------|----------------| 
|-------------|----------------| 

VERSE 1 
(Only acoustic guitar) 

VERSE 2 
|-------------|-------------| 
|-------------|-------------| 
|------7------|------7------| 
|---8----5----|---8----5--3-| x2 
|-6-----------|-6-----------| 
|-------------|-------------| 
(And the tears come streaming down your face...) 

CHORUS 1 

|-------------|-------------|-------------|-------------| 
|--------11---|-------------|--------11---|-------------| 
|-----8-------|-10----------|-----8-------|-10----------| 
|-10----------|-------8-----|-10----------|-------8-----| 
|-------------|-------------|-------------|----------10-| 
|-------------|-------------|-------------|-------------| 
(Lights will guide...) 

|-------------|-------------| 
|--------11---|-------------| 
|-----8-------|-10----------| 
|-10----------|-------------| 
|-------------|-------------| 
|-------------|-------------| 

INTERLUDE 

|-------11----|-------10----|-------11----|-------10----| 
|----8--------|----8--------|----8--------|-------------| 
|-8-----------|-------------|-------------|----10-------| 
|-------------|-------------|-------------|-------------| 
|-------------|-------------|-------------|-------------| 
|-------------|-------------|-------------|-------------| 

|-------11----|-------10----|-------11----|-10----------| 
|----8--------|----8--------|----8--------|-------------| 
|-8-----------|-------------|-------------|-------------| 
|-------------|-------------|-------------|-------------| 
|-------------|-------------|-------------|-------------| 
|-------------|-------------|-------------|-------------| 

VERSE 3 

|-------------|-------------|-------------|-------------| 
|-------------|-------------|-------------|-------------| 
|-------8-----|-------7-----|-------8-----|-------7-----| 
|----8--------|----8--------|----8--------|----8--------| x4 
|-6-----------|-------------|-------------|-------------| 
|-------------|-------------|-------------|-------------| 
(And high up above...) 

CHOPUS 2 

|-------------|-------------| 
|-11----------|-11----------| 
|-8-----------|-10----------| 
|-10----------|-8-----8-----| 
|-------------|-------------| 
|-------------|-------------| 

|-------------|-------------| 
|-11----------|-11----11----| 
|-8-----------|-10----7-----| 
|-10----------|-8-----8-----| 
|-------------|-------------| 
|-------------|-------------| 

|-------------|-------------| 
|-11----------|-11----------| 
|-8-----------|-10----------| 
|-10----------|-8-----------| 
|-------------|-------------| 
|-------------|-------------| 

INTERLUDE 

|------------------------|------------------------    | 
|-4--4--4--4--4--4--4--4-|-4--4--4-/11-11-11-11\4-    | 
|------------------------|------------------------    | 
|------------------------|------------------------ x3 | 
|------------------------|------------------------    | 
|------------------------|------------------------    | 
                                                      | x3 
|------------------------|------------------------    | 
|-4--4--4--3--3--3--3--3-|-3--3--3--3-------------    | 
|------------------------|------------------------    | 
|------------------------|------------------------    | 
|------------------------|------------------------    | 
|------------------------|------------------------    | 

|------------------------|------------------------| 
|-4--4--4--4--4--4--4--4-|-4--4--4-/11-11-11-11\4-| 
|------------------------|------------------------| 
|------------------------|------------------------| 
|------------------------|------------------------| 
|------------------------|------------------------| 

|------------------------|------------------------| 
|-4--4--4--3--3--3--3--3-|-3----------------------| 
|------------------------|------------------------| 
|------------------------|------------------------| 
|------------------------|------------------------| 
|------------------------|------------------------| 

BRIDGE 

|----------------|--------------|----------|----------        | 
|----11-11-11-11-|--11-11-11-11-|--9-9-9-9-|--9-9-9-9-        | 
|-3/8--8--8--8---|-8--8--8--8---|-8-8-8-8--|-8-8-8-8--        | 
|----------------|--------------|----------|----------        | 
|----------------|--------------|----------|----------        | 
|----------------|--------------|----------|----------        | 
(Tears stream down your face...)                              | x3 
|----------|----------|------------------|------------------  | 
|--8-8-8-8-|--8-8-8-8-|---11--11--11--11-|---11--11--11--11-  | 
|-8-8-8-8--|-8-8-8-8--|-10--10--10--10---|-10--10--10--10---  | 
|----------|----------|------------------|------------------  | 
|----------|----------|------------------|------------------  | 
|----------|----------|------------------|------------------  | 

|----------------|--------------|----------|----------| 
|----11-11-11-11-|--11-11-11-11-|--9-9-9-9-|--9-9-9-9-| 
|-3/8--8--8--8---|-8--8--8--8---|-8-8-8-8--|-8-8-8-8--| 
|----------------|--------------|----------|----------| 
|----------------|--------------|----------|----------| 
|----------------|--------------|----------|----------| 

|----------|----------|------------------|--------------| 
|--8-8-8-8-|--8-8-8-8-|---11--11--11--11-|--11-11-11-11-| 
|-8-8-8-8--|-8-8-8-8--|-10--10--10--10---|-7--7--7--7---| 
|----------|----------|------------------|--------------| 
|----------|----------|------------------|--------------| 
|----------|----------|------------------|--------------| 

END-CHORUS 

|-------------|-------------| 
|-------------|-------------| 
|-8-----------|-12----------| 
|-------------|-13----------| 
|-------------|-11----------| 
|-------------|-------------| 
(Lights will guide...) 
|-------------|-------------| 
|-------------|-------------| 
|-------------|-12----------| 
|-12----------|-13----------| 
|------13-----|-11----------| 
|-------------|-------------| 

|-------------|-------------| 
|-------------|-------------| 
|-13-12-10----|-------------| 
|-------------|-13----------| 
|-------------|-------------| 
|-------------|-------------| 
 
	  

Search Paypal
auto scroll beats size up size down change color hide chords drawings
tab show chords e-chords YouTube Clip e-chords hide all tabs e-chords go to top tab