Boyce Avenue

home > Boyce Avenue

Shimmer Tab

Boyce Avenue

Difficulty: BeginnerBeginner

by educastilho

tuner correct add songbook print version text version save to e-mail
chordsukulelecavacokeyboardtabbassdrumsharmonicsflute Guitar Pro
chords

Shimmer

  		

Tuning:  D#   G#   C#   F#   A#   D#   

Verse: 

|--0---0---0-/-0-\-0--| 
|--5---7---7-/-8-\-7--| 
|--0---0---0-/-0-\-0--|  
|--5---7---7-/-9-\-7--| 
|--3---5---5-/-7-\-5--| 
|---------------------| 


Pré-Chorus: 

   She says she's ashamed...And can she take me for a while... 
|--0--------------0--0--------------0---0--------0------0----0--| 
|--5--------------7--8--------------7---5--------7------8----7--| 
|--0--------------0--0--------------0---0--------0------0----0--| 
|--5--------------7--9--------------7---5--------7------9----7--| 
|--3--------------5--7--------------5---3--------5------7----5--| 
|---------------------------------------------------------------| 

And can i be a friend, we'll forget the past, But maybe i'm not able... 
|---0-------------0----0-/-0-\-0--------0-----------------------0---------0~~-| 
|---5-------------7----7-/-8-\-7--------5-----------------------7---------7~~-| 
|---0-------------0----0-/-0-\-0--------0-----------------------0---------0~~-|let's ring the last 
|---5-------------7----7-/-9-\-7--------5-----------------------7---------7~~-| 
|---3-------------5----5-/-7-\-5--------3-----------------------5---------5~~-| 
|-----------------------------------------------------------------------------| 


Chorus: 
							(2x) 
|-----0---0---3-3----------------0---3-3---3~~--|--0---0---0-/-0-\-0--| 
|-----0---1---3-3---/-8--\-7--\--1---3-3---3~~--|--5---7---7-/-8-\-7--| 
|-----0---2---0-0---/-9--\-7--\--2---0-0---0~~--|--0---0---0-/-0-\-0--| 
|-----2---2---0-2---/-9--\-7--\--2---0-2---2~~--|--5---7---7-/-9-\-7--| 
|-----2---0---2-3----------------0---2-3---3~~--|--3---5---5-/-7-\-5--| 
|--0--0-----------------------------------------|---------------------| 

Verso 

Pré-Chorus 

Chorus 

Pós-Chorus: 

     It's too far away for me to hold... 
|--0-----------0----0--------0----0--------0------0----0--| 
|--5-----------7----8--------7----5--------7------8----7--| 
|--0-----------0----0--------0----0--------0------0----0--| (2x) 
|--5-----------7----9--------7----5--------7------9----7--| 
|--3-----------5----7--------5----3--------5------7----5--| 
|---------------------------------------------------------| 

Bridge 

|--0----0--0--0--0--0--0--| 
|--7--/-10-9--10-9--10-9--| 
|--7--/-9--9--9--9--9--9--|(4x) 
|--0----0--0--0--0--0--0--| 
|--0----0--0--0--0--0--0--| 
|-------------------------| 

Pós-Chorus (4x) 

End: 
    
        Guess i'll let it go 
|--0---0~~----------------0~~----| 
|--7---7~~----------------0~~----| 
|--0---0~~----------------0~~----| 
|--7---7~~----------------2~~----| 
|--5---5~~----------------3~~----| 
|--------------------------------| 
	  

Search Paypal
auto scroll beats size up size down change color hide chords drawings
tab show chords e-chords YouTube Clip e-chords hide all tabs e-chords go to top tab