Boyce Avenue

home > Boyce Avenue

Send My Love To Your New Lover Tab

Boyce Avenue

Difficulty: nolevelnolevel

by lucicamargo

tuner correct add songbook print version text version save to e-mail
chordsukulelecavacokeyboardtabbassdrumsharmonicsflute Guitar Pro
chords

Send My Love To Your New Lover

  		
Tuning: DGCFAd 

Intro 
   p.m. 
d|-----------------------------------------------------------------| 
A|-----------------------------------------------------------------| 
F|-------5---------------5---------------5---------------5---------| 
C|---5-------5-------5-------5-------5-------5-------5-------5-----| 
G|-3---3-----------3---3-----------3---3-----------3---3-------3\2-| 
D|------------0h3p0-----------0h3p0-----------0h3p0----------------| 
   p.m. 
d|-----------------------------------------------------------------| 
A|-----------------------------------------------------------------| 
F|-------2---------------2---------------2---------------2---------| 
C|---2-------2-------2-------2-------2-------2-------2-------2-----| 
G|-0---0-----------0---0-----------0---0-----------0---0-------0h2-| 
D|-------------3p0-------------3p0-------------3p0-----------------| 


verse 1 
   p.m. 
d|-----------------------------------------------------------------| 
A|-----------------------------------------------------------------| 
F|-------5---------------5---------------5---------------5---------| 
C|---5-------5-------5-------5-------5-------5-------5-------5-----| 
G|-3---3-----------3---3-----------3---3-----------3---3-------3\2-| 
D|-------------3p0-------------3p0-------------3p0-----------------| 
   p.m. 
d|-----------------------------------------------------------------| 
A|-----------------------------------------------------------------| 
F|-------2---------------2---------------2---------------2---------| 
C|---2-------2-------2-------2-------2-------2-------2-------2-----| 
G|-0---0-----------0---0-----------0---0-----------0---0-------0h2-| 
D|-------------3p0-------------3p0-------------3p0-----------------| 

verse 2 
   p.m. 
d|-----------------------------------------------------------------| 
A|-----------------------------------------------------------------| 
F|-------5---------------5---------------5---------------5---------| 
C|---5-------5-------5-------5-------5-------5-------5-------5-----| 
G|-3---3-----------3---3-----------3---3-----------3---3-------3\2-| 
D|-------------3p0-------------3p0-------------3p0-----------------| 
   p.m. 
d|-----------------------------------------------------------------| 
A|-----------------------------------------------------------------| 
F|-------2---------------2---------------2---------------2---------| 
C|---2-------2-------2-------2-------2-------2-------2-------2-----| 
G|-0---0-----------0---0-----------0---0-----------0---0-------0h2-| 
D|-------------3p0-------------3p0-------------3p0-----------------| 

Pre-Chorus 1 
    
d|-----------------------------------------------------------------| 
A|-----------------------------------------------------------------| 
F|-------5-x-------------5-x-------------5-x-------------5-x-------| 
C|---5-----x-5-------5-----x-5-------5-----x-5-------5-----x-5-----| 
G|-3---3---x-------3---3---x-------3---3---x-------3---3---x---3\2-| 
D|---------x---3p0---------x---3p0---------x---3p0---------x-------| 
    
d|-------------------------------------------------0---------------| 
A|-----------------------------------------------------------------| 
F|-------2-x-------------2-x-------------2-------------------------| 
C|---2-----x-2-------2-----x-2-------3-------3---------------------| 
G|-0---0---x-------0---0---x---------------------------------------| 
D|---------x---3p0---------x---3p0-1---1---1---1-------------------| 

Chorus 1 
   v   v   v     ^ v ^ v   v ^ v ^ v   v   v     ^ v ^ v   v ^ v ^ 
d|---------0-----0-0-0-0---0-0-0-0---------0-----0-0-0-0---0-0-0-0-| 
A|-----1---1-----1-1-1-1---1-1-1-1-----1---1-----1-1-1-1---1-1-1-1-| 
F|-0---0---0-----0-0-0-0---0-0-0-0-0---0---0-----0-0-0-0---0-0-0-0-| 
C|-0h2-2---2-----2-2-2-2---2-0-0-0-0h2-2---2-----2-2-2-2---0-0-0-0-| 
G|-3-------3---------------3-------3-------3---------------2-------| 
D|-----------------------------------------------------------------| 
   v   v   v     ^ v ^ v   v ^ v ^ v   v   v     ^ v ^ v   v ^ v ^ 
d|---------0-----0-0-0-0---0-0-0-0---------0-----0-0-0-0---0-0-0-0-| 
A|-----1---1-----1-1-1-1---1-1-1-1-----1---1-----1-1-1-1---1-1-1-1-| 
F|-2---2---2-----2-2-2-2---2-2-2-2-2---2---2-----2-2-2-2---0-0-0-0-| 
C|-0h2-2---2-----2-2-2-2---2-0-0-0-0h2-2---2-----2-2-2-2---0-0-0-0-| 
G|-0-------0---------------0-------0-------0---------------2-------| 
D|-----------------------------------------------------------------| 
   v   v   v     ^ v ^ v   v ^ v ^ v   v   v     ^ v ^ v   v ^ v ^ 
d|---------0-----0-0-0-0---0-0-0-0---------0-----0-0-0-0---0-0-0-0-| 
A|-----1---1-----1-1-1-1---1-1-1-1-----1---1-----1-1-1-1---1-1-1-1-| 
F|-0---0---0-----0-0-0-0---0-0-0-0-0---0---0-----0-0-0-0---0-0-0-0-| 
C|-0h2-2---2-----2-2-2-2---2-0-0-0-0h2-2---2-----2-2-2-2---0-0-0-0-| 
G|-3-------3---------------3-------3-------3---------------2-------| 
D|-----------------------------------------------------------------| 
   v   v   v     ^ v ^ v   v ^ v ^ v   v   v   v ^  
d|---------0-----0-0-0-0---0-0-0-0---------0-----0-----------------| 
A|-----1---1-----1-1-1-1---1-1-1-1-1---1---1---1-1-----------------| 
F|-2---2---2-----2-2-2-2---2-2-2-2-0h2-2---2---2-2-----------------| 
C|-0h2-2---2-----2-2-2-2---2-0-0-0-3---3---3---3-------------------| 
G|-0-------0---------------0-------3-------3-----------------------| 
D|---------------------------------1-------------------------------| 


d|-----------------------------------------------------------------| 
A|-----------------------------------------------------------------| 
F|-------5---------------5---------------5-------------------------| 
C|---5-------5-------5-------5-------5-------5---------------------| 
G|-3---3-----------3---3-----------3---3-----------3---------------| 
D|-------------3p0-------------3p0-------------3p0-----------------| 

verse 3 
   
d|-----------------------------------------------------------------| 
A|-----------------------------------------------------------------| 
F|-------5-x-------------5-x-------------5-x-------------5-x-------| 
C|---5-----x-5-------5-----x-5-------5-----x-5-------5-----x-5-----| 
G|-3---3---x-------3---3---x-------3---3---x-------3---3---x---3\2-| 
D|---------x---3p0---------x---3p0---------x---3p0---------x-------| 
    
d|-----------------------------------------------------------------| 
A|-----------------------------------------------------------------| 
F|-------2-x-------------2-x-------------2-x-------------2-x-------| 
C|---2-----x-2-------2-----x-2-------2-----x-2-------2-----x-2-----| 
G|-0---0---x-------0---0---x-------0---0---x-------0---0---x---0h2-| 
D|---------x---3p0---------x---3p0---------x---3p0---------x-------| 

verse 4 
    
d|-----------------------------------------------------------------| 
A|-----------------------------------------------------------------| 
F|-------5-x-------------5-x-------------5-x-------------5-x-------| 
C|---5-----x-5-------5-----x-5-------5-----x-5-------5-----x-5-----| 
G|-3---3---x-------3---3---x-------3---3---x-------3---3---x---3\2-| 
D|---------x---3p0---------x---3p0---------x---3p0---------x-------| 
    
d|-----------------------------------------------------------------| 
A|-----------------------------------------------------------------| 
F|-------2-x-------------2-x-------------2-x-------------2-x-------| 
C|---2-----x-2-------2-----x-2-------2-----x-2-------2-----x-2-----| 
G|-0---0---x-------0---0---x-------0---0---x-------0---0---x---0h2-| 
D|---------x---3p0---------x---3p0---------x---3p0---------x-------| 

Pre-Chorus 2 
    
d|-----------------------------------------------------------------| 
A|-----------------------------------------------------------------| 
F|-------5-x-------------5-x-------------5-x-------------5-x-------| 
C|---5-----x-5-------5-----x-5-------5-----x-5-------5-----x-5-----| 
G|-3---3---x-------3---3---x-------3---3---x-------3---3---x---3\2-| 
D|---------x---3p0---------x---3p0---------x---3p0---------x-------| 
    
d|-------------------------------------------------0---------------| 
A|-----------------------------------------------------------------| 
F|-------2-x-------------2-x-------------2-------------------------| 
C|---2-----x-2-------2-----x-2-------3-------3-------------x-------| 
G|-0---0---x-------0---0---x-------------------------------x-------| 
D|---------x---3p0---------x---3p0-1---1---1---1-----------12\3----| 

Chorus 2 
   v   v   v     ^ v ^ v   v ^ v ^ v   v   v     ^ v ^ v   v ^ v ^ 
d|---------0-----0-0-0-0---0-0-0-0---------0-----0-0-0-0---0-0-0-0-| 
A|-----1---1-----1-1-1-1---1-1-1-1-----1---1-----1-1-1-1---1-1-1-1-| 
F|-0---0---0-----0-0-0-0---0-0-0-0-0---0---0-----0-0-0-0---0-0-0-0-| 
C|-0h2-2---2-----2-2-2-2---2-0-0-0-0h2-2---2-----2-2-2-2---0-0-0-0-| 
G|-3-------3---------------3-------3-------3---------------2-------| 
D|-----------------------------------------------------------------| 
   v   v   v     ^ v ^ v   v ^ v ^ v   v   v     ^ v ^ v   v ^ v ^ 
d|---------0-----0-0-0-0---0-0-0-0---------0-----0-0-0-0---0-0-0-0-| 
A|-----1---1-----1-1-1-1---1-1-1-1-----1---1-----1-1-1-1---1-1-1-1-| 
F|-2---2---2-----2-2-2-2---2-2-2-2-2---2---2-----2-2-2-2---0-0-0-0-| 
C|-0h2-2---2-----2-2-2-2---2-0-0-0-0h2-2---2-----2-2-2-2---0-0-0-0-| 
G|-0-------0---------------0-------0-------0---------------2-------| 
D|-----------------------------------------------------------------| 
   v   v   v     ^ v ^ v   v ^ v ^ v   v   v     ^ v ^ v   v ^ v ^ 
d|---------0-----0-0-0-0---0-0-0-0---------0-----0-0-0-0---0-0-0-0-| 
A|-----1---1-----1-1-1-1---1-1-1-1-----1---1-----1-1-1-1---1-1-1-1-| 
F|-0---0---0-----0-0-0-0---0-0-0-0-0---0---0-----0-0-0-0---0-0-0-0-| 
C|-0h2-2---2-----2-2-2-2---2-0-0-0-0h2-2---2-----2-2-2-2---0-0-0-0-| 
G|-3-------3---------------3-------3-------3---------------2-------| 
D|-----------------------------------------------------------------| 
   v   v   v     ^ v ^ v   v ^ v ^ v   v   v     ^ v ^ v   v ^ v ^ 
d|---------0-----0-0-0-0---0-0-0-0---------0-----0-0-0-0---0-0-0-0-| 
A|-----1---1-----1-1-1-1---1-1-1-1-1---1---1-----1-1-1-1---1-1-1-1-| 
F|-2---2---2-----2-2-2-2---2-2-2-2-0h2-2---2-----2-2-2-2---2-2-2-2-| 
C|-0h2-2---2-----2-2-2-2---2-0-0-0-3---3---3-----3-3-3-3---3-3-3-3-| 
G|-0-------0---------------0-------3-------3---------------3-------| 
D|---------------------------------1-----------------------1-------| 

Bridge 
   v   v   v     ^ v ^ v   v ^ v ^ v   v   v     ^ v ^ v   v ^ v ^ 
d|---------0-----0-0-0-0---0-0-0-0---------0-----0-0-0-0---0-0-0-0-| 
A|-----1---1-----1-1-1-1---1-1-1-1-----1---1-----1-1-1-1---1-1-1-1-| 
F|-0---0---0-----0-0-0-0---0-0-0-0-0---0---0-----0-0-0-0---0-0-0-0-| 
C|-0h2-2---2-----2-2-2-2---2-0-0-0-0h2-2---2-----2-2-2-2---0-0-0-0-| 
G|-3-------3---------------3-------3-------3---------------2-------| 
D|-----------------------------------------------------------------| 
   v   v   v     ^ v ^ v   v ^ v ^ v   v   v     ^ v ^ v   v ^  
d|---------0-----0-0-0-0---0-0-0-0---------0-----0-0-0-0---0-0-----| 
A|-----1---1-----1-1-1-1---1-1-1-1-----1---1-----1-1-1-1---1-1-----| 
F|-2---2---2-----2-2-2-2---2-2-2-2-2---2---2-----2-2-2-2---0-0-----| 
C|-0h2-2---2-----2-2-2-2---2-0-0-0-0h2-2---2-----2-2-2-2---0-0-----| 
G|-0-------0---------------0-------0-------0---------------2-------| 
D|-----------------------------------------------------------------| 

d|-----------------------------------------------------------------| 
A|-----------------------------------------------------------------| 
F|-------5---------------5---------------5---------------5---------| 
C|---5-------5-------5-------5-------5-------5-------5-------5-----| 
G|-3---3-----------3---3-----------3---3-----------3---3-------3\2-| 
D|-------------3p0-------------3p0-------------3p0-----------------| 
    
d|-----------------------------------------------------------------| 
A|-----------------------------------------------------------------| 
F|-------2---------------2---------------2---------------2---------| 
C|---2-------2-------2-------2-------2-------2-------2-------2-----| 
G|-0---0-----------0---0-----------0---0-----------0---0-------0h2-| 
D|-------------3p0-------------3p0-------------3p0-----------------| 

Pre-Chorus 3 

d|-----------------------------------------------------------------| 
A|-----------------------------------------------------------------| 
F|-------5---------------5---------------5---------------5---------| 
C|---5-------5-------5-------5-------5-------5-------5-------5-----| 
G|-3---3-----------3---3-----------3---3-----------3---3-------3\2-| 
D|-------------3p0-------------3p0-------------3p0-----------------| 
    
d|-----------------------------------------------------------------| 
A|-----------------------------------------------------------------| 
F|-------2---------------2-----------------------------------------| 
C|---2-------2-------2-------2-------------------------------------| 
G|-0---0-----------0---0-----------0-------------------------------| 
D|-------------3p0-------------3p0---------------------------------| 

Chorus 3 
   v   v   v     ^ v ^ v   v ^ v ^ v   v   v     ^ v ^ v   v ^ v ^ 
d|---------0-----0-0-0-0---0-0-0-0---------0-----0-0-0-0---0-0-0-0-| 
A|-----1---1-----1-1-1-1---1-1-1-1-----1---1-----1-1-1-1---1-1-1-1-| 
F|-0---0---0-----0-0-0-0---0-0-0-0-0---0---0-----0-0-0-0---0-0-0-0-| 
C|-0h2-2---2-----2-2-2-2---2-0-0-0-0h2-2---2-----2-2-2-2---0-0-0-0-| 
G|-3-------3---------------3-------3-------3---------------2-------| 
D|-----------------------------------------------------------------| 
   v   v   v     ^ v ^ v   v ^ v ^ v   v   v     ^ v ^ v   v ^ v ^ 
d|---------0-----0-0-0-0---0-0-0-0---------0-----0-0-0-0---0-0-0-0-| 
A|-----1---1-----1-1-1-1---1-1-1-1-----1---1-----1-1-1-1---1-1-1-1-| 
F|-2---2---2-----2-2-2-2---2-2-2-2-2---2---2-----2-2-2-2---0-0-0-0-| 
C|-0h2-2---2-----2-2-2-2---2-0-0-0-0h2-2---2-----2-2-2-2---0-0-0-0-| 
G|-0-------0---------------0-------0-------0---------------2-------| 
D|-----------------------------------------------------------------| 
   v   v   v     ^ v ^ v   v ^ v ^ v   v   v     ^ v ^ v   v ^ v ^ 
d|---------0-----0-0-0-0---0-0-0-0---------0-----0-0-0-0---0-0-0-0-| 
A|-----1---1-----1-1-1-1---1-1-1-1-----1---1-----1-1-1-1---1-1-1-1-| 
F|-0---0---0-----0-0-0-0---0-0-0-0-0---0---0-----0-0-0-0---0-0-0-0-| 
C|-0h2-2---2-----2-2-2-2---2-0-0-0-0h2-2---2-----2-2-2-2---0-0-0-0-| 
G|-3-------3---------------3-------3-------3---------------2-------| 
D|-----------------------------------------------------------------| 
   v   v   v     ^ v ^ v   v ^ v ^ v   v   v     ^ v ^ v   v ^ v ^ 
d|---------0-----0-0-0-0---0-0-0-0---------0-----0-0-0-0---0-0-0-0-| 
A|-----1---1-----1-1-1-1---1-1-1-1-1---1---1-----1-1-1-1---1-1-1-1-| 
F|-2---2---2-----2-2-2-2---2-2-2-2-0h2-2---2-----2-2-2-2---2-2-2-2-| 
C|-0h2-2---2-----2-2-2-2---2-0-0-0-3---3---3-----3-3-3-3---3-3-3-3-| 
G|-0-------0---------------0-------3-------3---------------3-------| 
D|---------------------------------1-----------------------1-------| 

Outro 
   v   v   v     ^ v ^ v   v ^ v ^ v   v   v     ^ v ^ v   v ^ v ^ 
d|---------0-----0-0-0-0---0-0-0-0---------0-----0-0-0-0---0-0-0-0-| 
A|-----1---1-----1-1-1-1---1-1-1-1-----1---1-----1-1-1-1---1-1-1-1-| 
F|-0---0---0-----0-0-0-0---0-0-0-0-0---0---0-----0-0-0-0---0-0-0-0-| 
C|-0h2-2---2-----2-2-2-2---2-0-0-0-0h2-2---2-----2-2-2-2---0-0-0-0-| 
G|-3-------3---------------3-------3-------3---------------2-------| 
D|-----------------------------------------------------------------| 
   v   v   v     ^ v ^ v   v ^ v ^ v   v   v     ^ v ^ v   v ^ v ^ 
d|---------0-----0-0-0-0---0-0-0-0---------0-----0-0-0-0---0-0-0-0-| 
A|-----1---1-----1-1-1-1---1-1-1-1-----1---1-----1-1-1-1---1-1-1-1-| 
F|-2---2---2-----2-2-2-2---2-2-2-2-2---2---2-----2-2-2-2---0-0-0-0-| 
C|-0h2-2---2-----2-2-2-2---2-0-0-0-0h2-2---2-----2-2-2-2---0-0-0-0-| 
G|-0-------0---------------0-------0-------0---------------2-------| 
D|-----------------------------------------------------------------| 
   v   v   v     ^ v ^ v   v ^ v ^ v   v   v     ^ v ^ v   v ^ v ^ 
d|---------0-----0-0-0-0---0-0-0-0---------0-----0-0-0-0---0-0-0-0-| 
A|-----1---1-----1-1-1-1---1-1-1-1-----1---1-----1-1-1-1---1-1-1-1-| 
F|-0---0---0-----0-0-0-0---0-0-0-0-0---0---0-----0-0-0-0---0-0-0-0-| 
C|-0h2-2---2-----2-2-2-2---2-0-0-0-0h2-2---2-----2-2-2-2---0-0-0-0-| 
G|-3-------3---------------3-------3-------3---------------2-------| 
D|-----------------------------------------------------------------| 
   v   v   v     ^ v ^ v   v ^ v ^ v   v   v     ^ v ^ v   v ^ v ^ 
d|---------0-----0-0-0-0---0-0-0-0---------0-----0-0-0-0---0-0-0-0-x---| 
A|-----1---1-----1-1-1-1---1-1-1-1-1---1---1-----1-1-1-1---1-1-1-1-x---| 
F|-2---2---2-----2-2-2-2---2-2-2-2-0h2-2---2-----2-2-2-2---2-2-2-2-x---| 
C|-0h2-2---2-----2-2-2-2---2-0-0-0-3---3---3-----3-3-3-3---3-3-3-3-x---| 
G|-0-------0---------------0-------3-------3---------------3-------x---| 
D|---------------------------------1-----------------------1-------x---| 


************************************ 
| /     slide up 
| \     slide down 
| h     hammer-on 
| p     pull-off 
| x     Mute note 
| p.m.  Palm mute 
| v     strum down 
| ^     strum up 
************************************
 
	  

Search Paypal
auto scroll beats size up size down change color hide chords drawings
tab show chords e-chords YouTube Clip e-chords hide all tabs e-chords go to top tab