Boyce Avenue

home > Boyce Avenue

Wanted Tab

Boyce Avenue

Difficulty: BeginnerBeginner

by educastilho

tuner correct add songbook print version text version save to e-mail
chordsukulelecavacokeyboardtabbassdrumsharmonicsflute Guitar Pro
chords

Wanted

Key:  D# More
Wanted Key A#A#
Wanted Key BB
Wanted Key CC
Wanted Key C#C#(one step down)
Wanted Key DD(half step down)
Wanted Key D#D#(original key)
Wanted Key EE(half step up)
Wanted Key FF(one step up)
Wanted Key F#F#
Wanted Key GG
Wanted Key G#G#
Wanted Key AA
  		

Intro: 

F#|-----0---------------0---------------0---------------0-----------| 
B |-0---------------0---------------0---------------0---------------| 
F#|---0---------------0---------------0---------------0-------------| 
C#|-----------------------------------------------------------------| 
G#|-8-----7---------5-----7---------8-----7---------5-----3---------| 
D#|-----------------------------------------------------------------| 


verse 1: 

F#|-----0---------------0---------------0---------------0-----------| 
B |-0---------------0---------------0---------------0---------------| 
F#|---0---------------0---------------0---------------0-------------| x2 
C#|-----------------------------------------------------------------| 
G#|-8-----7---------5-----7---------8-----7---------5-----3---------| 
D#|-----------------------------------------------------------------| 


verse 2: 

F#|-----0-------0-------0-------0-------0-------0-------0-------0---| 
B |-0-------0-------0-------0-------0-------0-------0-------0-------| 
F#|---0-------0---0---0-------0---0---0-------0---0---0-------0---0-| 
C#|-----------------------------------------------------------------| 
G#|-8-----7---------5-----7---------8-----7---------5-----3---------| 
D#|-----------------------------------------------------------------| 

F#|-----0-------0-------0-------0-------0-------0-------0-----------| 
B |-0-------0-------0-------0-------0-------0-------0---------------| 
F#|---0-------0---0---0-------0---0---0-------0---0---0-------------| 
C#|-----------------------------------------------------------------| 
G#|-8-----7---------5-----7---------8-----7---------5-----3---------| 
D#|-----------------------------------------------------------------| 


Chorus: 

F#|-----0-----0---------0-----0---------0-----0---------0-----0-----| 
B |---0-----0---0-----0-----0---0-----0-----0---0-----0-----0---0---| 
F#|-5-----4-------4-2-----0-------0-5-----4-------4-2-----5---------| x2 
C#|-----------------------------------------------------------------| 
G#|-----------------------3-------------------------------3-------2-| 
D#|-5-----3---------1---------------5-----3---------1---------------| 

                                                              + + + 
F#|-----0-----0-------------------------0-------0-------0---------12| 
B |---0-----0---0-------------------0-------0-------0---------12----| 
F#|-5-----4-------4-2-----------------0-------0---0---0---------12--| 
C#|-----------------------------------------------------------------| 
G#|---------------------------------8-----7---------5---------------| 
D#|-5-----3---------1-------------------------------------8---------| 


verse 3: 

F#|-----0-------0-------0-------0-------0-------0-------0-------0---| 
B |-0-------0-------0-------0-------0-------0-------0-------0-------| 
F#|---0-------0---0---0-------0---0---0-------0---0---0-------0---0-| 
C#|-----------------------------------------------------------------| 
G#|-8-----7---------5-----7---------8-----7---------5-----3---------| 
D#|-----------------------------------------------------------------| 

F#|-----0-------0-------0-------0-------0-------0-------0-----------| 
B |-0-------0-------0-------0-------0-------0-------0---------------| 
F#|---0-------0---0---0-------0---0---0-------0---0---0-------------| 
C#|-----------------------------------------------------------------| 
G#|-8-----7---------5-----7---------8-----7---------5-----3---------| 
D#|-----------------------------------------------------------------| 


Chorus: 

F#|-----0-----0---------0-----0---------0-----0---------0-----0-----| 
B |---0-----0---0-----0-----0---0-----0-----0---0-----0-----0---0---| 
F#|-5-----4---------2-----0---------5-----4---------2-----5---------| x2 
C#|-----------------------------------------------------------------| 
G#|-----------------------3-3-3-3-3-----------------------3-3-3-3-2-| 
D#|-5-5-5-3-3-3-3-3-1-1-1-----------5-5-5-3-3-3-3-3-1-1-1-----------| 

F#|-----0-----0---------0-----0-----| 
B |---0-----0---0-----0-----0---0---| 
F#|-5-----4---------2---------------| 
C#|---------------------------------| 
G#|---------------------------------| 
D#|-5-5-5-3-3-3-3-3-1-1-1-1-1-1-1-0-| 


Bridge: 

  ||-->p.m.                          v v v  v     v  v v v 
F#|---------------------------------|----------------------| 
B |-0-0-0-0-0-0-0-0-0-0-0-0-0-0-0-0-|----------------------| 
F#|-2-2-2-2-2-2-2-2-0-0-0-0-0-0-0-0-|2-2-2/-10/12-10-9-7-5-| 
C#|-2-2-2-2-2-2-2-2-2-2-2-2-2-2-2-2-|3-3-3/-8-/10-8--7-5-3-| 
G#|-0-0-0-0-0-0-0-0-3-3-3-3-3-3-3-3-|3-3-3/-8-/10-8--7-5-3-| 
D#|---------------------------------|1-1-1/----------------| 

F#|-----------------------------------------------------------------| 
B |-0-0-0-0-0-0-0-0-0-0-0-0-0-0-0-0-0-0-0-0-0-0-0-0-0-0-0-0-0-0-0-0-| 
F#|-2-2-2-2-2-2-2-2-0-0-0-0-0-0-0-0-2-2-2-2-2-2-2-2-2-2-2-2-2-2-2-2-| 
C#|-2-2-2-2-2-2-2-2-2-2-2-2-2-2-2-2-2-2-2-2-2-2-2-2-3-3-3-3-3-3-3-3-| 
G#|-0-0-0-0-0-0-0-0-3-3-3-3-3-3-3-3-0-0-0-0-0-0-0-0-3-3-3-3-3-3-3-3-| 
D#|-------------------------------------------------1-1-1-1-1-1-1-1-| 
   p.m.-->||        v               v               v     v     v 
F#|-----------------0---------------0---------------0-----0-----0---| 
B |-0---------------0---------------0---------------0-----0-----0---| 
F#|-4---------------0---------------4---------------2-----4-----2---| 
C#|-5---------------2---------------5---------------3-----5-----3---| 
G#|-5---------------3---------------5---------------3-----0-----3---| 
D#|-3-------------------------------3---------------1-----------1---| 


Chorus: 

F#|-0-0-0-0-0-0-0-0-0-0-0-0-0-0-0-0-0-0-0-0-0-0-0-0-0-0-0-0-0-0-0-0-| 
B |-0-0-0-0-0-0-0-0-0-0-0-0-0-0-0-0-0-0-0-0-0-0-0-0-0-0-0-0-0-0-0-0-| 
F#|-2-2-2-4-4-4-4-4-2-2-2-0-0-0-0-0-2-2-2-4-4-4-4-4-2-2-2-0-0-0-0-0-| x3 
C#|-2-2-2-5-5-5-5-5-3-3-3-2-2-2-2-2-2-2-2-5-5-5-5-5-3-3-3-2-2-2-2-0-| 
G#|-0-0-0-5-5-5-5-5-3-3-3-3-3-3-3-3-0-0-0-5-5-5-5-5-3-3-3-3-3-3-3-2-| 
D#|-------3-3-3-3-3-1-1-1-----------------3-3-3-3-3-1-1-1-----------| 

F#|-0-0-0-0---------0-----------------------------------------------| 
B |-0-0-0-0---------0-----------------------------------------------| 
F#|-2-2-2-4---------2-----------------------------------------------| 
C#|-2-2-2-5-----x---3-----------------------------------------------| 
G#|-0-0-0-5-----x---3-----------------------------------------------| 
D#|-------3-----x---1-----------------------------------------------| 


Outro: 
F#|-----0-------0-------0-------0-------0-------0-------0-----------| 
B |-0-------0-------0-------0-------0-------0-------0---------------| 
F#|---0-------0---0---0-------0---0---0-------0---0---0-------------| 
C#|-----------------------------------------------------------------| 
G#|-8-----7---------5-----7---------8-----7---------5-----3---------| 
D#|-----------------------------------------------------------------| 

************************************ 

| /     slide up 
| +     harmonic 
| x     mute note 
| p.m.  palm mute 
| v     down strum 

************************************ 

 
	  

Search Paypal
auto scroll beats size up size down change color hide chords drawings
tab show chords e-chords YouTube Clip e-chords hide all tabs e-chords go to top tab