Boyce Avenue

home > Boyce Avenue

A Thousand Miles Tab

Boyce Avenue

Difficulty: BeginnerBeginner

by joaoewerton

tuner correct add songbook print version text version save to e-mail
chordsukulelecavacokeyboardtabbassdrumsharmonicsflute Guitar Pro
chords

A Thousand Miles

  		
             
 Making my way downtown walking fast faces pass and I'm home bound? 

e|--0----0--------0----0--------0----0--------0----0-------------| 
B|--3----3?-------3----3--------3----3--------3----3-------------| 
G|--0----2--------0----0--------0----2--------0----0-------------| 
D|--2--?-0--------0----2--------2----0--------0----2-------------| 
A|--3-------------2----3--------3-------------2----3-------------| 
E|---------------------------------------------------------------| 

e|---------------------------------------------------------------| 
B|-------3------3-------3-------------3------3-------3-----------| 
G|-----0------0-------0----4\2p0----0------0-------0----4/5\4p0--| 
D|---5------4------0--------------5------4------0----------------| 
A|---------------------------------------------------------------| 
E|---------------------------------------------------------------| 

 Staring blankly ahead just making my way making a way through the  
        
e|--0----0--------0----0--------0----0--------0----0-------------| 
B|--3----3?-------3----3--------3----3--------3----3-------------| 
G|--0----2--------0----0--------0----2--------0----0-------------| 
D|--2--?-0--------0----2--------2----0--------0----2-------------| 
A|--3-------------2----3--------3-------------2----3-------------| 
E|---------------------------------------------------------------| 

    crowd? 

e|---------------------------------------------------------------| 
B|-------3------3-------3-------------3------3-------3-----------| 
G|-----0------0-------0----4\2p0----0------0-------0----4/5\4p0--| 
D|---5------4------0--------------5------4------0----------------| 
A|---------------------------------------------------------------| 
E|---------------------------------------------------------------| 

        And I need you     And I miss you      And now I wonder.... 

e|---------------------------------------------------------------| 
B|-----0----------------0------------------0-----------^1--^3----| 
G|---0----------------0------------------0-------------^0--^0----| 
D|-------9----------------9-------------------9--------^2--^4----| 
A|-----------------------------------------------------^3--^5----| 
E|---------------------------------------------------------------| 

   If I could fall              Into the sky 

e|---------------------------------------------------------------| 
B|--------3-0-----------3-0-----------3-0-----------3-0----------| 
G|------0-----0-------0-----0-------0-----0-------0-----0--------| 
D|----0---------0---0---------0---0---------0---0---------0------| 
A|--3-------------5-------------2-------------3------------------| 
E|---------------------------------------------------------------| 

     Do you think time          Would pass me by 

e|---------------------------------------------------------------| 
B|--------3-0-----------3-0-----------3-0-----------3-0----------| 
G|------0-----0-------0-----0-------0-----0-------0-----0--------| 
D|----0---------0---0---------0---0---------0---0---------0------| 
A|--3-------------5-------------2-------------3------------------| 
E|---------------------------------------------------------------| 

   'Cause you know I'd walk A thousand miles         If I could 

e|---------------------------------------------------------------| 
B|--------3-0-----------3-0-----------3-0-----------3-0----------| 
G|------0-----0-------0-----0-------0-----0-------0-----0--------| 
D|----0---------0---0---------0---0---------0---0---------0------| 
A|--3-------------5-------------2-------------3------------------| 
E|---------------------------------------------------------------| 

   Just  see   you                          Tonight 

e|--0-----0-----2-----3---3---3-?-3--3--2------------------------| 
B|--3-----3-----3-----3?--3---3---3--3--3------------------------| 
G|--0-----2-----2-----2---2---2---2--2--2------------------------| 
D|--2-----0-----0-----0---0---0---0--0--0------------------------| 
A|--2-----0------------------------------------------------------| 
E|--0-----2------------------------------------------------------| 

e|--0---0--x-x--0---0---0--0-0---0---0--x-x--0---0---0--0-0------| 
B|--3---3?-x-x--3---3---3--3-3---3---3--x-x--3---3---3--3-3------| 
G|--0---2--x-x--0---0---0--0-0---0---2--x-x--0---0---0--0-0------| 
D|--2--?0-------0---0---2--2-2---2---0-------0---0---2--2-2------| 
A|--3-----------2---2---3--3-3---3-----------2---2---3--3-3------| 
E|---------------------------------------------------------------| 

It's always times like these when I think of you and I wonder if you ever  

e|--0----0--------0----0--------0----0--------0----0-------------| 
B|--3----3?-------3----3--------3----3--------3----3-------------| 
G|--0----2--------0----0--------0----2--------0----0-------------| 
D|--2--?-0--------0----2--------2----0--------0----2-------------| 
A|--3-------------2----3--------3-------------2----3-------------| 
E|---------------------------------------------------------------| 

   think of me 

e|--0---0--x-x--0---0-0----------0---0--x-x--0---0-0-------------| 
B|--3---3?-x-x--3---3-3----------3---3--x-x--3---3-3-------------| 
G|--0---2--x-x--0---0-0?-4/2p0---0---2--x-x--0---0-0?4\5/4p0-----| 
D|--2--?0-------0---0-0----------2---0-------0---0-0-------------| 
A|--3-----------2---2-2----------3-----------2---2-2-------------| 
E|---------------------------------------------------------------| 

    
 Cause everything's so wrong and I don't belong living in your precious  

e|--0----0--------0----0--------0----0--------0----0-------------| 
B|--3----3?-------3----3--------3----3--------3----3-------------| 
G|--0----2--------0----0--------0----2--------0----0-------------| 
D|--2--?-0--------0----2--------2----0--------0----2-------------| 
A|--3-------------2----3--------3-------------2----3-------------| 
E|---------------------------------------------------------------| 

    Memory?.. 

e|--0---0--x-x--0---0-0----------0---0--x-x--0---0-0-------------| 
B|--3---3?-x-x--3---3-3----------3---3--x-x--3---3-3-------------| 
G|--0---2--x-x--0---0-0?-4/2p0---0---2--x-x--0---0-0?4\5/4p0-----| 
D|--2--?0-------0---0-0----------2---0-------0---0-0-------------| 
A|--3-----------2---2-2----------3-----------2---2-2-------------| 
E|---------------------------------------------------------------| 

           ?Cause I need you   And I miss you     And now I wonder.... 

e|---0--0?-0------------0--0?-0------------0--0--0---------------| 
B|---3--3--3------------3--3--3------------3--3--3-----^1--^3----| 
G|---0--0--2------------0--0--2------------0--0--2-----^0--^0----| 
D|---2--0--0------------2--0--0------------2--0--0-----^2--^4----| 
A|---3--2---------------3--2---------------3--2--------^3--^5----| 
E|---------------------------------------------------------------| 

     If I could fall              Into the sky 

e|---------------------------------------------------------------| 
B|--------3-0-----------3-0-----------3-0-----------3-0----------| 
G|------0-----0-------0-----0-------0-----0-------0-----0--------| 
D|----0---------0---0---------0---0---------0---0---------0------| 
A|--3-------------5-------------2-------------3------------------| 
E|---------------------------------------------------------------| 

   Do you think time           Would pass me by 

e|---------------------------------------------------------------| 
B|--------3-0-----------3-0-----------3-0-----------3-0----------| 
G|------0-----0-------0-----0-------0-----0-------0-----0--------| 
D|----0---------0---0---------0---0---------0---0---------0------| 
A|--3-------------5-------------2-------------3------------------| 
E|---------------------------------------------------------------| 

   'Cause you know I'd walk A thousand miles         If I could 

e|---------------------------------------------------------------| 
B|--------3-0-----------3-0-----------3-0-----------3-0----------| 
G|------0-----0-------0-----0-------0-----0-------0-----0--------| 
D|----0---------0---0---------0---0---------0---0---------0------| 
A|--3-------------5-------------2-------------3------------------| 
E|---------------------------------------------------------------| 

   Just  see   you                               Tonight 

e|--0-----0-----2-----3---3---3-?-3--3--2------------------------| 
B|--3-----3-----3-----3?--3---3---3--3--3------------------------| 
G|--0-----2-----2-----2---2---2---2--2--2------------------------| 
D|--2-----0-----0-----0---0---0---0--0--0------------------------| 
A|--2-----0------------------------------------------------------| 
E|--0-----2------------------------------------------------------| 

e|--0---0--x-x--0---0---0--0-0---0---0--x-x--0---0---0--0-0------| 
B|--3---3?-x-x--3---3---3--3-3---3---3--x-x--3---3---3--3-3------| 
G|--0---2--x-x--0---0---0--0-0---0---2--x-x--0---0---0--0-0------| 
D|--2--?0-------0---0---2--2-2---2---0-------0---0---2--2-2------| 
A|--3-----------2---2---3--3-3---3-----------2---2---3--3-3------| 
E|---------------------------------------------------------------|  

e|--0---0--x-x--0---0---0--0-0---0---0--x-x--0---0---0--0-0------| 
B|--3---3?-x-x--3---3---3--3-3---3---3--x-x--3---3---3--3-3------| 
G|--0---2--x-x--0---0---0--0-0---0---2--x-x--0---0---0--0-0------| 
D|--2--?0-------0---0---2--2-2---2---0-------0---0---2--2-2------| 
A|--3-----------2---2---3--3-3---3-----------2---2---3--3-3------| 
E|---------------------------------------------------------------| 

And I              I               Don't want to let you know 

e|---------------------------------------------------------------| 
B|--3--3--3--3-3---3--3--3--3-3---3--3--3--3-3---3--3?-3--3-3----| 
G|--0--0--0--0-0---2--2--2--2-2---0--0--0--0-0---2?-2--2--2-2----| 
D|--2--2--2--2-2---0--0--0--0-0---0--0--0--0-0---2--2--2?-2-2----| 
A|--2--2--2--2-2---0--0--0--0-0---2--2?-2--2-2---0?-0?-0?-0-0----| 
E|--0--0--0--0-0---2--2--2--2-2---3--3--3--3-3-------------------| 

    I              I                Drown in your memory 

e|---------------------------------------------------------------| 
B|--3--3--3--3-3---3--3--3--3-3---3--3--3--3-3---3--3?-3--3-3----| 
G|--0--0--0--0-0---2--2--2--2-2---0--0--0--0-0---2?-2--2--2-2----| 
D|--2--2--2--2-2---0--0--0--0-0---0--0--0--0-0---2--2--2?-2-2----| 
A|--2--2--2--2-2---0--0--0--0-0---2--2?-2--2-2---0?-0?-0?-0-0----| 
E|--0--0--0--0-0---2--2--2--2-2---3--3--3--3-3-------------------| 

    I              I                Don't want to let this go 

e|---------------------------------------------------------------| 
B|--3--3--3--3-3---3--3--3--3-3---3--3--3--3-3---3--3?-3--3-3----| 
G|--0--0--0--0-0---2--2--2--2-2---0--0--0--0-0---2?-2--2--2-2----| 
D|--2--2--2--2-2---0--0--0--0-0---0--0--0--0-0---2--2--2?-2-2----| 
A|--2--2--2--2-2---0--0--0--0-0---2--2?-2--2-2---0?-0?-0?-0-0----| 
E|--0--0--0--0-0---2--2--2--2-2---3--3--3--3-3-------------------| 

    I              I           Don't.... 

e|---------------------------------------------------------------| 
B|--3--3--3--3-3---3--3--3-3---3~~~~-----------------------------| 
G|--0--0--0--0-0---2--2--2-2---2~~~~?----------------------------| 
D|--2--2--2--2-2---0--0--0-0---2~~~~-----------------------------| 
A|--2--2--2--2-2---0--0--0-0---0~~~~-----------------------------| 
E|--0--0--0--0-0---2--2--2-2-------------------------------------| 

 Making my way downtown walking fast faces pass and I'm home bound? 

e|--0----0--------0----0--------0----0--------0----0-------------| 
B|--3----3?-------3----3--------3----3--------3----3-------------| 
G|--0----2--------0----0--------0----2--------0----0-------------| 
D|--2--?-0--------0----2--------2----0--------0----2-------------| 
A|--3-------------2----3--------3-------------2----3-------------| 
E|---------------------------------------------------------------| 

e|---------------------------------------------------------------| 
B|-------3------3-------3-------------3------3-------3-----------| 
G|-----0------0-------0----4\2p0----0------0-------0----4/5\4p0--| 
D|---5------4------0--------------5------4------0----------------| 
A|---------------------------------------------------------------| 
E|---------------------------------------------------------------| 

  Staring blankly ahead just making my way making a way through the  
        
e|--0----0--------0----0--------0----0--------0----0-------------| 
B|--3----3?-------3----3--------3----3--------3----3-------------| 
G|--0----2--------0----0--------0----2--------0----0-------------| 
D|--2--?-0--------0----2--------2----0--------0----2-------------| 
A|--3-------------2----3--------3-------------2----3-------------| 
E|---------------------------------------------------------------| 

    crowd? 

e|---------------------------------------------------------------| 
B|-------3------3-------3-------------3------3-------3-----------| 
G|-----0------0-------0----4\2p0----0------0-------0----4/5\4p0--| 
D|---5------4------0--------------5------4------0----------------| 
A|---------------------------------------------------------------| 
E|---------------------------------------------------------------| 

     And I still need you  And I still miss you  And now I wonder.... 

e|---------------------------------------------------------------| 
B|-----0----------------0------------------0-----------^1--^3----| 
G|---0----------------0------------------0-------------^0--^0----| 
D|-------9----------------9-------------------9--------^2--^4----| 
A|-----------------------------------------------------^3--^5----| 
E|---------------------------------------------------------------| 

?If I could fall 
Into the sky 
Do you think time 
Would pass us by 
'Cause you know I'd walk 
A thousand miles 
If I could  
Just see you?...  

e|-----------2--2--2--2--2----2--2-2-----------------------------| 
B|-----------3--3--3--3--3----3--3-3-----------------------------| 
G|-----------2--2--2--2--2----2--2-2-----------------------------| 
D|-----------0?-0--0--0--0----0--0-0-----------------------------| 
A|---------------------------------------------------------------| 
E|---------------------------------------------------------------| 
             X  X  X  X 

If I could fall Into the sky 

e|--0---0---0-0-0--0---0--0-0-0--0---0--0-0-0---0--0--0-0-0------| 
B|--3?--3?--3-3-3--3---3?-3-3-3--3---3--3-3-3---3--3?-3-3-3------| 
G|--0?--0---0-0-0--2---2--2-2-2--0---0--0-0-0---0--0--0-0-0------| 
D|--2---2?--2-2-2--0---0--0-0-0--0---0--0-0-0---2?-2--2-2-2------| 
A|--3---3---3-3-3----------------2---2--2-2-2---3--3--3-3-3------| 
E|---------------------------------------------------------------| 

Do you think time Would pass me by 

e|--0---0---0-0-0--0---0--0-0-0--0---0--0-0-0---0--0--0-0-0------| 
B|--3?--3?--3-3-3--3---3?-3-3-3--3---3--3-3-3---3--3?-3-3-3------| 
G|--0?--0---0-0-0--2---2--2-2-2--0---0--0-0-0---0--0--0-0-0------| 
D|--2---2?--2-2-2--0---0--0-0-0--0---0--0-0-0---2?-2--2-2-2------| 
A|--3---3---3-3-3----------------2---2--2-2-2---3--3--3-3-3------| 
E|---------------------------------------------------------------| 

'Cause you know I'd walk A thousand miles If I could  

e|--0---0---0-0-0--0---0--0-0-0--0---0--0-0-0---0--0--0-0-0------| 
B|--3?--3?--3-3-3--3---3?-3-3-3--3---3--3-3-3---3--3?-3-3-3------| 
G|--0?--0---0-0-0--2---2--2-2-2--0---0--0-0-0---0--0--0-0-0------| 
D|--2---2?--2-2-2--0---0--0-0-0--0---0--0-0-0---2?-2--2-2-2------| 
A|--3---3---3-3-3----------------2---2--2-2-2---3--3--3-3-3------| 
E|---------------------------------------------------------------| 

   Just  see   you                          If I could  

e|--0-----0-----2------------------------------------------------| 
B|--3-----3-----3------------------------------------------------| 
G|--0-----2-----2------------------------------------------------| 
D|--2-----0-----0------------------------------------------------| 
A|--2-----0------------------------------------------------------| 
E|--0-----2------------------------------------------------------| 

   Just  hold  you                                                           

e|--0-----0-----2------------------------------------------------| 
B|--3-----3-----3------------------------------------------------| 
G|--0-----2-----2------------------------------------------------| 
D|--2-----0-----0------------------------------------------------| 
A|--2-----0------------------------------------------------------| 
E|--0-----2------------------------------------------------------| 

Tonight?. 

e|---------------------------------------------------------------| 
B|-\9-8/-3~-------\9?8/-3~---------\9-8/-3~------------------3---| 
G|----------4/2p0----------4\5/4p0----------4/2p0?4p2p0-4p2p0?-2~| 
D|---------------------------------------------------------------| 
A|---------------------------------------------------------------| 
E|---------------------------------------------------------------| 

| /  slide up 
| \  slide down 
| h  hammer-on 
| p  pull-off    
| ~  vibrato 
| +  harmonic 
| x  Mute note 
| ^  Strum 
	  

Search Paypal
auto scroll beats size up size down change color hide chords drawings
tab show chords e-chords YouTube Clip e-chords hide all tabs e-chords go to top tab