Boyce Avenue

home > Boyce Avenue

A Sky Full Of Stars Tab

Boyce Avenue

Difficulty: BeginnerBeginner

by andrsouza

tuner correct add songbook print version text version save to e-mail
chordsukulelecavacokeyboardtabbassdrumsharmonicsflute Guitar Pro
chords

A Sky Full Of Stars

  		

Intro: 

d|-0---0---0-----0-0---0---0---0-----0---0-0---0---0-----0---0-0---0---0-----0-0---| 
A|-0---0---0-----0-0---0---0---0-----0---0-0---0---0-----0---0-0---0---0-----0-0---| 
F|-0---0---0-----0-0---4---4---4-----4---4-4---4---4-----4---4-2---2---2-----2-2---| 
C|-9---9---9-----9-9---5---5---5-----5---5-5---5---5-----5---5-4---4---4-----4-4---| 
G|-7---7---7-----7-7---3---3---3-----3---3-x---x---x-----x---x-2---2---2-----2-2---| 
D|-0---0---0-----0-0-----------------------3---3---3-----3---3---------------------| 
 |                                                                                 | 
d|---------------------------------------------------------------------------------| 
A|---------------------------------------------------------------------------------| 
F|---------------------------------------------------------------------------------| 
C|-9---------------10--12-------------------------------10\9-7---------------------| 
G|---------------------------------------------------------------------------------| 
D|---------------------------------------------------------------------------------| 


d|-0---0---0-----0-0---0---0---0-----0---0-0---0---0-----0---0-0-------------------| 
A|-0---0---0-----0-0---0---0---0-----0---0-0---0---0-----0---0-0-------------------| 
F|-0---0---0-----0-0---4---4---4-----4---4-4---4---4-----4---4-2-------------------| 
C|-9---9---9-----9-9---5---5---5-----5---5-5---5---5-----5---5-4-------------------| 
G|-7---7---7-----7-7---3---3---3-----3---3-x---x---x-----x---x-2-------------------| 
D|-0---0---0-----0-0-----------------------3---3---3-----3---3---------------------| 
 |                                                                                 | 
d|---------------------------------------------------------------------------------| 
A|---------------------------------------------------------------------------------| 
F|---------------------------------------------------------------------------------| 
C|-9---------------10--12-------------------------------10\9-7---------------------| 
G|---------------------------------------------------------------------------------| 
D|---------------------------------------------------------------------------------| 


verse 1: 

d|---------------------------------------------------------------------------------| 
A|---------3-------------------3---------------------------------------------------| 
F|-----0-------------------0-----------------------4-------------------2-----------| x4 
C|---------------------------------------------5-------------------4---------------| 
G|---------------------3---------------------------------------2-------------------| 
D|-0---------------------------------------3---------------------------------------| 


Chorus 1: 

d|---------------------------------------------------------------------------------| 
A|---------3-------------------3---------------------------------------------------| 
F|-----0---------0---------0-----------------------4-------------------2-----------| 
C|---------------------------------------------5---------5---------4---------------| 
G|---------------------3---------------------------------------2-------------------| 
D|-0---------------------------------------3---------------------------------------\ 
 |                                                                                 x2 
d|---------------------------------------------------------------------------------/ 
A|-12------------------15------------------12------------------15--------13--------| 
F|---------------------------------------------------------------------------------| 
C|---------------------------------------------------------------------------------| 
G|---------------------------------------------------------------------------------| 
D|---------------------------------------------------------------------------------| 


d|---------------------------------------------------------------------------------| 
A|---------3-------------------3---------------------------------------------------| 
F|-----0---------0---------0-----------------------4-------------------2-----------| 
C|---------------------------------------------5---------5---------4---------------| 
G|---------------------3---------------------------------------2-------------------| 
D|-0---------------------------------------3---------------------------------------| 
 |                                                                                 | 
d|---------------------------------------------------------------------------------| 
A|-12------------------------------------------------------------------------------| 
F|---------------------------------------------------------------------------------| 
C|---------------------------------------------------------------------------------| 
G|---------------------------------------------------------------------------------| 
D|---------------------------------------------------------------------------------| 


d|---------------------------------------------------------------------------------| 
A|---------3-------------------3-------------------3---------------------x---------| 
F|-----0---------0---------0-------------------0---------0-------------2-x---------| 
C|-----------------------------------------------------------------4-----x---------| 
G|---------------------3---------------------------------------2---------x---------| 
D|-0---------------------------------------0---------------------------------------| 


Instrumental(strum away!!!): 

d|-0--------------0----0-------------------0-------------------0-------------------| 
A|-0--------------0----0-------------------0-------------------0-------------------| 
F|-0--------------0----4-------------------4-------------------2-------------------| 
C|-9--------------7----5-------------------5-------------------4-------------------| 
G|-7--------------5----3-------------------x-------------------2-------------------| 
D|-0--------------x------------------------3---------------------------------------| 
 |                                                                                 | 
d|---------------------------------------------------------------------------------| 
A|-8----8----8---10-10/13--13--13---13--13-12--12--12---12--12-10--10--10----10--10| 
F|---------------------------------------------------------------------------------| 
C|---------------------------------------------------------------------------------| 
G|---------------------------------------------------------------------------------| 
D|---------------------------------------------------------------------------------| 


d|-0--------------0----0-------------------0-------------------0-------------------| 
A|-0--------------0----0-------------------0-------------------0-------------------| 
F|-0--------------0----4-------------------4-------------------2-------------------| 
C|-9--------------7----5-------------------5-------------------4-------------------| 
G|-7--------------5----3-------------------x-------------------2-------------------| 
D|-0--------------x------------------------3---------------------------------------| 
 |                                                                                 | 
d|-----------------------------------------------------------------------15--14-15-| 
A|-8----8----8---10-10/13--13--13---13--13-12--12--12----12--12--------15--15------| 
F|-------------------------------------------------------------14--14--------------| 
C|---------------------------------------------------------------------------------| 
G|---------------------------------------------------------------------------------| 
D|---------------------------------------------------------------------------------| 


verse 2: 

d|-0--------------0----0-------------------0-------------------0-------------------| 
A|-0--------------0----0-------------------0-------------------0-------------------| 
F|-0--------------0----4-------------------4-------------------2-------------------| x2 
C|-9--------------7----5-------------------5-------------------4-------------------| 
G|-7--------------5----3-------------------x-------------------2-------------------| 
D|-0--------------x------------------------3---------------------------------------| 


d|-0--------------0----0-------------------0-------------------0-------------------| 
A|-0--------------0----0-------------------0-------------------0-------------------| 
F|-0--------------0----4-------------------4-------------------2-------------------| 
C|-9--------------7----5-------------------5-------------------4-------------------| 
G|-7--------------5----3-------------------x-------------------2-------------------| 
D|-0--------------x------------------------3---------------------------------------\ 
 |                                                                                 x2 
d|---------------------------------------------------------------------------------/ 
A|---------------------------------------------------------------------------------| 
F|-----------4-------------------5-------------------4-------------------2---------| 
C|-----5-------------------5-------------------5-------------------4---------------| 
G|-7-------------------3-------------------5-------------------5-------------------| 
D|---------------------------------------------------------------------------------| 


Chorus 2: 

d|-0--------------0----0-------------------0-------------------0-------------------| 
A|-0--------------0----0-------------------0-------------------0-------------------| 
F|-0--------------0----4-------------------4-------------------2-------------------| 
C|-9--------------7----5-------------------5-------------------4-------------------| 
G|-7--------------5----3-------------------x-------------------2-------------------| 
D|-0--------------x------------------------3---------------------------------------\ 
 |                                                                                 x2 
d|---------------------------------------------------------------------------------/ 
A|-12------------------15------------------12------------------15--------13--------| 
F|---------------------------------------------------------------------------------| 
C|---------------------------------------------------------------------------------| 
G|---------------------------------------------------------------------------------| 
D|---------------------------------------------------------------------------------| 


d|-0--------------0----0-------------------0-------------------0-------------------| 
A|-0--------------0----0-------------------0-------------------0-------------------| 
F|-0--------------0----4-------------------4-------------------2-------------------|  
C|-9--------------7----5-------------------5-------------------4-------------------| 
G|-7--------------5----3-------------------x-------------------2-------------------| 
D|-0--------------x------------------------3---------------------------------------| 
 |                                                                                 | 
d|---------------------------------------------------------------------------------| 
A|-12------------------------------------------------------------------------------| 
F|---------------------------------------------------------------------------------| 
C|---------------------------------------------------------------------------------| 
G|---------------------------------------------------------------------------------| 
D|---------------------------------------------------------------------------------| 


d|-0--------------0----0-------------------0-------------------0-------------------| 
A|-0--------------0----0-------------------0-------------------0-------------------| 
F|-0--------------0----4-------------------4-------------------2-------------------| 
C|-9--------------7----5-------------------5-------------------4-------------------| 
G|-7--------------5----3-------------------x-------------------2-------------------| 
D|-0--------------x------------------------3---------------------------------------| 
 |                                                                                 | 
d|---------------------------------------------------------------------------------| 
A|-12------------------15------------------12------------------15--------13--------| 
F|---------------------------------------------------------------------------------| 
C|---------------------------------------------------------------------------------| 
G|---------------------------------------------------------------------------------| 
D|---------------------------------------------------------------------------------| 

                                                              v(once) 
d|-0--------------0----0-------------------0-------------------0-------------------| 
A|-0--------------0----0-------------------0-------------------0-------------------| 
F|-0--------------0----4-------------------4-------------------2-------------------| 
C|-9--------------7----5-------------------5-------------------4-------------------| 
G|-7--------------5----3-------------------x-------------------2-------------------| 
D|-0--------------x------------------------3---------------------------------------| 
 |                                                                                 | 
d|-----------------------------------------------------------------------15--14-15-| 
A|-12------------------15------------------12--------------------------15--15------| 
F|---------------------------------------------------------------------------------| 
C|---------------------------------------------------------------------------------| 
G|---------------------------------------------------------------------------------| 
D|---------------------------------------------------------------------------------| 


Instrumental(same as above) 


Chorus 3: 

d|-0-------------------0-------------------0-----------------------------0---------| 
A|-0-------------------0-------------------0-----------------------------0---------| 
F|-0-------------------0-------------------0-----------------------------0---------| 
C|-2-------------------4-------------------5-----------------------------9---------| 
G|-3-------------------5-------------------7-----------------------------10--------| 
D|-----------------------------------------0---------------------------------------\ 
 |                                                                                 x2 
d|------------15--14-15-----------15--17-15-----------15--14-15-----------15--17-15/ 
A|----------15--15--------------15--15--------------15--15--------------15--15-----| 
F|-12--12--------------14--14--------------12--12--------------12--12--------------| 
C|---------------------------------------------------------------------------------| 
G|---------------------------------------------------------------------------------| 
D|---------------------------------------------------------------------------------| 


d|-0-------------------0-------------------0-----------------------------0---------| 
A|-0-------------------0-------------------0-----------------------------0---------| 
F|-0-------------------0-------------------0-----------------------------0---------| 
C|-2-------------------4-------------------5-----------------------------9---------| 
G|-3-------------------5-------------------7-----------------------------10--------| 
D|-----------------------------------------0---------------------------------------\ 
 |                                                                                 x2 
d|-12---12---12---12---14---14---14---14---15---15---15---15---15---15---17---17---/ 
A|----12---12---12---12---15---15---15---15---15---15---15---15---15---15---15---15| 
F|---------------------------------------------------------------------------------| 
C|---------------------------------------------------------------------------------| 
G|---------------------------------------------------------------------------------| 
D|---------------------------------------------------------------------------------| 


d|-0-------------------0-------------------0---------------------------------------| 
A|-0-------------------0-------------------0---------------------------------------| 
F|-0-------------------0-------------------0---------------------------------------| 
C|-2-------------------4-------------------5---------------------------------------| 
G|-3-------------------5-------------------7---------------------------------------| 
D|-----------------------------------------0---------------------------------------| 
 |                                                                                 | 
d|-12---12---12---12---17---17---17---17---15---15---15---15---15---15---15---15---| 
A|----12---12---12---12---15---15---15---15---15---15---15---15---15---15---15---15| 
F|---------------------------------------------------------------------------------| 
C|---------------------------------------------------------------------------------| 
G|---------------------------------------------------------------------------------| 
D|---------------------------------------------------------------------------------| 


Outro: 

   v(once)            v(once)             v(once)                       v(once) 
d|-0-------------------0-------------------0-----------------------------0---------| 
A|-0-------------------0-------------------0-----------------------------0---------| 
F|-0-------------------0-------------------0-----------------------------0---------| 
C|-2-------------------4-------------------5-----------------------------9---------| 
G|-3-------------------5-------------------7-----------------------------10--------| 
D|-----------------------------------------0---------------------------------------| 
 |                                                                                 | 
d|---------------------------------------------------------------------------------| 
A|---12---12-15--13p12---12--12-15-----------12---12-15--13p12---12--12-15---------| 
F|-12---12-----12------12--12-----12-14/16-12---12-----12------12--12-----12-14/16-| 
C|---------------------------------------------------------------------------------| 
G|---------------------------------------------------------------------------------| 
D|---------------------------------------------------------------------------------| 


   v(once)            v(once)             v(once)                       v(once) 
d|-0-------------------0-------------------0-----------------------------0---------| 
A|-0-------------------0-------------------0-----------------------------0---------| 
F|-0-------------------0-------------------0-----------------------------0---------| 
C|-2-------------------4-------------------5-----------------------------9---------| 
G|-3-------------------5-------------------7-----------------------------10--------| 
D|-----------------------------------------0---------------------------------------| 
 |                                                                                 | 
d|---------------------------------------------------------------------------------| 
A|---12---12-15--13p12---12--12-15-----------12---12-15--13p12---12---12-15--13p12-| 
F|-12---12-----12------12--12-----12-14/16-12---12-----12------12---12-----12------| 
C|---------------------------------------------------------------------------------| 
G|---------------------------------------------------------------------------------| 
D|---------------------------------------------------------------------------------| 

   v(once) 
d|-0-------------------------------------------------------------------------------| 
A|-0-------------------------------------------------------------------------------| 
F|-0-------------------------------------------------------------------------------| 
C|-2-------------------------------------------------------------------------------| 
G|-3-------------------------------------------------------------------------------| 
D|---------------------------------------------------------------------------------| 

************************************ 

| /   slide up 
| \   slide down 
| h   hammer-on 
| p   pull-off 
| x   mute note 
| v   downstroke 

************************************ 

verse 1: 

'Cause you're a sky, cause you're a sky full of stars 
I'm gonna give you my heart 
'Cause you're a sky, cause you're a sky full of stars 
'Cause you light up the path 


Chorus 1: 

I don't care, go on and tear me apart 
I don't care if you do 
'Cause in a sky, cause in a sky full of stars 
I think I saw you 


verse 2: 

'Cause you're a sky, cause you're a sky full of stars 
I want to die in your arms, arms 
'Cause you get lighter the more it gets dark 
I'm going to give you my heart 


Chorus 2: 

And I don't care, go on and tear me apart 
And I don't care if you do 
'Cause in a sky, cause in a sky full of stars 
I think I see you 
I think I see you 


Chorus 3: 

Because you're a sky, you're a sky full of stars 
Such a heavenly view 
You're such a heavenly view 
	  

Search Paypal
auto scroll beats size up size down change color hide chords drawings
tab show chords e-chords YouTube Clip e-chords hide all tabs e-chords go to top tab