Boyce Avenue

home > Boyce Avenue

The Scientist Tab

Boyce Avenue

Difficulty: nolevelnolevel

by marcnagel

tuner correct add songbook print version text version save to e-mail
chordsukulelecavacokeyboardtabbassdrumsharmonicsflute Guitar Pro
chords

The Scientist

  		

Intro: 
                                                             
F |-----------------------------------------------------------------| 
C |-0---------------1-----------1h3-0---------------0---------------| 
G#|---0---0-----------0---0-----------0---0-----------0---0-0h2-2p0-| 
D#|-----2---------------2---------------0---------------0-----0-----| 
A#|-----------------3-----------------------------------------------| 
D#|-2-------------------------------5---------------5-------4-------| 


verse 1 and 2: 
                                                           
F |-----------------------------------------------------------------| 
C |-------0---------------1---------------0---------------0---------| 
G#|-----0---------------0---------------0---------------0---0h2-2p0-| x4 
D#|---2---------------2---------------0---------------0-------0-----| 
A#|-----------------3-----------------------------------------------| 
D#|-2-------------------------------5---------------5-------4-------| 


Chorus 1: 
                                                             
F |-----------------------------------------------------------------| 
C |-1---------------1-------1h3-1---0---------------0---------------| 
G#|---0---0-----------0---0---0-------0---0-----------0---0-0h2-2p0-| 
D#|-----2---------------2---------------0---------------0-----0-----| 
A#|-3---------------3-----------------------------------------------| 
D#|---------------------------------5---------------5-------4-------| 
                                                           
F |-----------------------------------------------------------------| 
C |-1---------------1-------1h3-1---0---------------0---------------| 
G#|---0---0-----------0---0---0-------0---0-----------0---0-0h2-2---| 
D#|-----2---------------2---------------0---------------0-----0---0-| 
A#|-3---------------3-----------------------------------------------| 
D#|---------------------------------5---------------5-------4-------| 

F |---------------------------------| 
C |-------------3-5-5/7-------------| 
G#|---2---2---2---------------------| 
D#|-----0---------------------------| 
A#|---------------------------------| 
D#|-0---------------0---------------| 



F |-----------------------------------------------------------------| 
C |-----0---------------1-------1/3-----0-------0-------0---0-------| 
G#|-------0-----4h5-------0---------------0-------0-------0-2-------| 
D#|---0-------0-------2-------2-------0-------0-------0-----0-------| 
A#|-----------------3-------3---------------------------------------| 
D#|-5-------5-----------------------5-------5-------5-------4-------| 


verse 3: 
                                                            * 
F |-----------------------------------------------------------------| 
C |-------0---------------1---------------0---------------0---------| 
G#|-----0---------------0---------------0---------------0---0h2-2p0-| x2 
D#|---2---------------2---------------0---------------0-------0-----| 
A#|-----------------3-3-3-3-3-3-3-3---------------------------------| 
D#|-2-2-2-2-2-2-2-2-----------------5-5-5-5-5-5-5-5-5-5-5-5-4-4-4-4-| 
  

verse 4: 
                                                            * 
F |-----------------------------------------------------------------| 
C |-------0-----0---------1-----1---------0-----0---------0---------| 
G#|-----0-----0---0-----0-----0---0-----0-----0---0-----0---0h2-2p0-| x2 
D#|---2---------------2---------------0---------------0-------0-----| 
A#|-----------------3-3-3-3-3-3-3-3---------------------------------| 
D#|-2-2-2-2-2-2-2-2-----------------5-5-5-5-5-5-5-5-5-5-5-5-4-4-4-4-| 

*NOTE: ?0h2? and other * marked hammer-on's have a 16th note length. Other notes are 8th. 
       So you play G#|-0---| simultaneously, and ?h2? is heard between them. 
                   D#|---0-|      
                   A#|-----| 
                   D#|-4-4-| 

Chorus 2: 
                            *                               * 
F |-----------------------------------------------------------------| 
C |-1---------------1-------1h3-1---0---------------0---------------| 
G#|---0---0-----------0---0---0-------0---0-----------0---0-0h2-2p0-| x2 
D#|-----2---------------2---------------0---------------0-----0-----| 
A#|-3-3-3-3-3-3-3-3-3-3-3-3-3-3-3-3---------------------------------| 
D#|---------------------------------5-5-5-5-5-5-5-5-5-5-5-5-4-4-4-4-| 

F |---------------------------------| 
C |-------------3-5-5h7-------------| 
G#|---2---2---2/4-------------------| 
D#|-----0---------------------------| 
A#|---------------------------------| 
D#|-0-0-0-0-0-0-0-0-0---------------| 


Outro(downstrokes): 

F |-----x---------x---------0-------0-------x---------x---------x---------x---| 
C |-----0---0-----0---0-----1-1-----1-1-----0---0-----0---0-----0---------0---| 
G#|-----4h5-4-----4h5-4-----0-0-----0-0-----4h5-4-----4h5-4-----4h5-------2---| 
D#|-0-0-0---0-0-0-0---0-2-2---2-2-2---2-0-0-0---0-0-0-0---0-0-0-0---0-0-0-0-0-| 
A#|-x-x-----x-x-x-----x-3-3-----3-3-----x-x-----x-x-x-----x-x-x-----x-x-x---x-| 
D#|-5-5-------5-5-----------------------5-5-------5-5-------5-5-----5-4-4---4-| 

F |-----0-------0---------0-----------0---------x---------x---------x---------x---| 
C |-----0-------0---------0-----------0---------0---0-----0---0-----0---0-----0---| 
G#|-----0-------0---------0-----------0---------4h5-4-----4h5-4-----4h5-4-----2---| x3 
D#|-2-2-2-2-2-2-2-2/10-10-10-10-10-10-10-10\0-0-0---0-0-0-0---0-0-0-0---0-0-0-0-0-| 
A#|-2-2---2-2-2---2/10-10----10-10-10----10\x-x-----x-x-x-----x-x-x-----x-x-x---x-| 
D#|-2-2---2-2-2---2/10-10----10-10-10----10\5-5-------5-5-------5-5-------4-4---4-| 

F |-0---------------0-----------------------x-------------------------------| 
C |-0---------------0-----------------------0-------------------------------| 
G#|-0---------------0-----------------------4-------------------------------| 
D#|-2--------------/10----------------------0-------------------------------| 
A#|-2--------------/10----------------------x-------------------------------| 
D#|-2--------------/10----------------------5-------------------------------| 


************************************ 
| /   slide up 
| \   slide down 
| h   hammer-on 
| p   pull-off 
| x   Mute note 
************************************ 

verse 1: 
Come up to meet you, tell you I'm sorry 
You don't know how lovely you are 
I had to find you, tell you I need you 
Tell you I'll set you apart 

verse 2: 
Tell me your secrets and ask me your questions 
Oh let's go back to the start 
Running in circles, coming in tails 
Heads on a science apart 

Chorus: 
Nobody said it was easy 
It's such a shame for us to part 
Nobody said it was easy 
No one ever said it would be this hard 
Oh, take me back to the start. 

verse 3: 
I was just guessing at numbers and figures 
Pulling your puzzles apart 
Questions of science, science and progress 
Do not speak as loud as my heart 

verse 4: 
Tell me you love me, come back and haunt me 
Oh and I rush to the start 
Running in circles, chasing our tails 
Coming back as we are 

Chorus: 
Nobody said it was easy 
Oh it's such a shame for us to part 
Nobody said it was easy 
No one ever said it would be so hard 
I'm going back to the start 

Outro: 
Ooooohhhhhhh 4x 
	  

Search Paypal
auto scroll beats size up size down change color hide chords drawings
tab show chords e-chords YouTube Clip e-chords hide all tabs e-chords go to top tab