Boyce Avenue

home > Boyce Avenue

What Makes You Beautiful Tab

Boyce Avenue

Difficulty: ExpertExpert

by renejunior

tuner correct add songbook print version text version save to e-mail
chordsukulelecavacokeyboardtabbassdrumsharmonicsflute Guitar Pro
chords

What Makes You Beautiful

  		
 

Intro 

e|--------------------------------------| 
B|--------------------------------------| 
G|-------0--------0------0--------2-----| 
D|-----0--------0------2--------0-------| 
A|------------3---------------0---------| 
E|---3---------------0------------------| 

First Verse 
e|--------------------------------------| 
B|--------------------------------------| 
G|-------0--------0------0--------2-----| (2x) 
D|-----0--------0------2--------0-------| 
A|------------3---------------0---------| 
E|---3---------------0------------------| 

Pre-chorus 
e|-------------------------------------------------------| 
B|-------------------------------------------------------| 
G|-------0--------0------0------------2------2p0---0-----| 
D|-----0--------0------2------------0------------0-------| 
A|------------3-------------------0----------------------| 
E|---3---------------0-----------------------------------| 

Chorus 
e|--------------------------------------------| 
B|--------------------------------------------| 
G|--------2h4------0-------0------2-0---------| (4x) 
D|------0--------0-------2-------0------------| 
A|-------------3-------------------0----------| 
E|---3-----------------0----------------------| 

                     That's what makes you beautiful... 
e|--------------------------------------------| 
B|--------------------------------------------| 
G|--------2h4------0--------------------------|  
D|------0--------0----------------------------| 
A|-------------3------------------------------| 
E|---3----------------------------------------| 

e|--------------------------------------------------------| 
B|-------1h3----------------------------------------------| 
G|----------------0-------0h2----2-0----------------------| 
D|-----0--------0-------2-------0-------------------------| 
A|------------3-------------------0-----------------------| 
E|---3----------------0-----------------------------------| 


e|--------------------------------------------------------| 
B|-------1h3----------------------------------------------| 
G|----------------0-------0h2-----------------------------| 
D|-----0--------0-------2-------0-------------------------| 
A|------------3-----------------0-------------------------| 
E|---3----------------0-----------------------------------| 

Second Verse Same as first verse 


Pre-chorus 


Second Chorus 
e|--------------------------------------------| 
B|--------------------------------------------| 
G|--------2h4------0-------0------2-0---------| (4x) 
D|------0--------0-------2-------0------------| 
A|-------------3-------------------0----------| 
E|---3-----------------0----------------------| 

                     That's what makes you beautiful... 
e|--------------------------------------------| 
B|--------------------------------------------| 
G|--------2h4------0--------------------------|  
D|------0--------0----------------------------| 
A|-------------3------------------------------| 
E|---3----------------------------------------| 


Solo 
e|----------------------------------------------------| 
B|---3p5---3---1h0------------------------------------| 
G|-------0---0------0-----2-4---3-----0-2---2-2p0-----| (2x) 
D|-------------------0---------------------0-----0----| 
A|--------------------3--------0-0--------------------| 
E|----------------------------3---3-------2-----------| 

Chorus 
e|-----------------| 
B|-----------------| 
G|----0--0--0--2---| (2x) 
D|----0--0--2--0---| 
A|-------3-----0---| 
E|----3-----0------| 

e|--------------------------------------------| 
B|--------------------------------------------| 
G|--------2h4------0-------0------2-0---------| (8x) 
D|------0--------0-------2-------0------------| 
A|-------------3-------------------0----------| 
E|---3-----------------0----------------------| 

e|--------------------------------------------------------| 
B|-------1h3----------------------------------------------| 
G|----------------0-------0h2----2-0----------------------| (2x) 
D|-----0--------0-------2-------0-------------------------| 
A|------------3-------------------0-----------------------| 
E|---3----------------0-----------------------------------| 

e|--------------------------------------------| 
B|--------------------------------------------| 
G|--------2h4------0-------0------2-0---------| (3x) 
D|------0--------0-------2-------0------------| 
A|-------------3-------------------0----------| 
E|---3-----------------0----------------------| 

e|--------------------------------------------| 
B|--------------------------------------------| 
G|--------2h4------0--------------------------|  
D|------0--------0----------------------------| 
A|-------------3------------------------------| 
E|---3----------------------------------------| 
 
	  

Search Paypal
auto scroll beats size up size down change color hide chords drawings
tab show chords e-chords YouTube Clip e-chords hide all tabs e-chords go to top tab