Boyce Avenue

home > Boyce Avenue

All The While Tab

Boyce Avenue

Difficulty: BeginnerBeginner

by educastilho

tuner correct add songbook print version text version save to e-mail
chordsukulelecavacokeyboardtabbassdrumsharmonicsflute Guitar Pro
chords

All The While

  		http://www.myspace.com/boyceavenue 

video of Boyce Avenue performing song: 
http://www.youtube.com/watch?v=BMHAMV3eZYo 

Acoustic Guitar 



Tuning: C# G# C# F# A# C#

/ = slide 
X = mute 

Intro: 
-0----0----0----0----0----0----0----0-| 
-7----7----0----5----7----7----0----5-| 
-7----0----4----6----7----0----4----6-| 
-0----0----4----7----0----0----4----7-| 
-0----x----2----0----0----x----2----0-| 
-0----5--------------0----5-----------| 

-0--0---0----0----0----0--0---0----0-| 
-3--5/7-7----0----5----3--5/7-7----5-| 
-0--0---7----4----6----0--0---7----6-| 
-0------0----4----7----0------0----7-| 
-x------0----2----0----x------0----0-| 
-5------0--------------5------0------| 

Verse 1: (nothing) 
Verse 2: (play 2x) 
-0----0----0----0-| 
-3----0----3----5-| 
-2----4----4----6-| (raked) 
-0----0----4----7-| 
-x----x----2----0-| 
-4----5-----------| 

Pre-Chorus: 
-0----0----0----0----0----0----0-| 
-5----7----5----7----5----7----5-| 
-6----7----6----7----6----7----6-| 
-0----0----0----0----0----0----7-| 
-x----x----x----x----x----x----0-| 
-4----5----4----5----4----5------| 

Chorus 1: 
-0----0----0----0----0----0----0----0-| 
-7----7----0----5----7----7----0----5-| 
-7----0----4----6----7----0----4----6-| 
-0----0----4----7----0----0----4----7-| 
-0----x----2----0----0----x----2----0-| 
-0----5--------------0----5-----------| 

Chrous 2 and 3: 
-0----0----0----0----0----0----0----0-| 
-7----7----0----5----7----7----0----5-| 
-7----0----4----6----7----0----4----6-| 
-0----0----4----7----0----0----4----7-| 
-0----x----2----0----0----x----2----0-| 
-0----5--------------0----5-----------| 

-0--0---0----0----0----0--0---0----0-| 
-3--5/7-7----0----5----3--5/7-7----5-| 
-0--0---7----4----6----0--0---7----6-| (Play again for chorus 3) 
-0------0----4----7----0------0----7-| 
-x------0----2----0----x------0----0-| 
-5------0--------------5------0------| 

Turnaround: 
-0----0----0----0-| 
-3----0----3----5-| 
-2----4----4----6-| 
-0----0----4----7-| 
-x----x----2----0-| 
-4----5-----------| 

Bridge/Solo: 
-0----0----0----0----0----0----0----0-| 
-3----5----3----5----3----5----3----5-| 
-4----6----0----6----4----6----0----6-| 
-4----0----0----7----4----0----0----7-| 
-2----0----x----0----2----0----x----0-| 
------0----5--------------0----5------| 

-0----0----0----0----0----0----0-| 
-3----7----0----5----3----7----5-| 
-0----7----4----6----0----7----6-| 
-0----0----4----7----0----0----7-| 
-x----0----2----0----x----0----0-| 
-5----0--------------5----0------| 

-0----0----0----0----0----0----0-| 
-3----7----0----5----3----7----5-| 
-0----7----4----6----0----7----6-| 
-0----0----4----7----0----0----7-| 
-x----0----2----0----x----0----0-| 
-5----0--------------5----0------| 

Outro: 
-0----0----0----0----0----0----0----0-| 
-7----7----0----5----7----7----0----5-| 
-7----0----4----6----7----0----4----6-| 
-0----0----4----7----0----0----4----7-| 
-0----x----2----0----0----x----2----0-| 
-0----5--------------0----5-----------| 

-0----0----0----0----0----0----0----0-| 
-7----7----0----5----7----7----0----5-| 
-7----0----4----6----7----0----4----6-| 
-0----0----4----7----0----0----4----7-| 
-0----x----2----0----0----x----2----0-| 
-0----5--------------0----5-----------| 

-0----0----0-| 
-0----0----0-| 
-0----0----0-| (raked) 
-0----0----0-| 
-x----x----x-| 
-5----5----5-| 
	  

Search Paypal
auto scroll beats size up size down change color hide chords drawings
tab show chords e-chords YouTube Clip e-chords hide all tabs e-chords go to top tab