Boyce Avenue

home > Boyce Avenue

My Sacrifice Tab

Boyce Avenue

Difficulty: ExpertExpert

by adalgomes

tuner correct add songbook print version text version save to e-mail
chordsukulelecavacokeyboardtabbassdrumsharmonicsflute Guitar Pro
chords

My Sacrifice

  		D|-----0-------------------|-0000--0--0---0--00--0--0---0-----0-| 
D|------0-----------0-0--0-|-0000--0--0---0--00--0--0---0-----0-| 
A|--4----4--------12---12--|-0005S44S55---5S775S44S99---9S10--0-| 
D|---4----4-----12---------|-0000--0--0---0--00--0--0---0-----0-| 
A|-2--2-----0-10-----------|-0005S44S55---5S775S44S99---9S10--0-| 
D|-------------------------|-0000--0--0---0--00--0--0---0-----0-| 
   Intro                     
D|-----0-------------------|-0--0--000--0--00---00--0--000--000-| 
D|------0-----------0-0--0-|-0--0--000--0--00---00--0--000--000-| 
A|--4----4--------12---12--|-5S44S5555--4S555S7s55s44s5554s5540-| 
D|---4----4-----12---------|-0--0--000--0--00-- 00--0--000--000-| 
A|-2--2-----0-10-----------|-5S44S5555--4S555S7s55s44s5554s5540-| 
D|-------------------------|-0--0--000--0--00---00--0--000--000-| 
                             

D|-0-----------0-----------|-0--0--000--0--00---00--0--000--000-| 
D|-0-----------0-----------|-0--0--000--0--00---00--0--000--000-| 
A|-4-----------12----------|-5S44S5555--4S555S7s55s44s5554s5540-|2x 
D|-4-----------12----------|-0--0--000--0--00-- 00--0--000--000-| 
A|-2-----------10----------|-5S44S5555--4S555S7s55s44s5554s5540-| 
D|-0-----------12----12s0--|-0--0--000--0--00---00--0--000--000-| 
  More Strumming               Hello My Friend      
                               Within My 

D|-0-----------0-----------| 
D|-0-----------0-----------| 
A|-4-----------12----------| 
D|-4-----------12----------| 
A|-2-----------10----------| 
D|-0-----------12----12s0--| 
          Oh I Remember                   

D|-0-----0-----0-----0-------------0-| 
D|-0-----0-----0-----0-------------0-| 
A|-0-----0-----4-----0-------------0-|2x 
D|-0-----0-----4-----0-------------0-| 
A|-5-----4-----2-----5---5h3p03-5h45-| 
D|-0-----0-----0-----5---5h3p03-5--0-| 
   With Me                Above All 
   The Others             My Sacrifice 

D|-0--0--000--0--00---00--0--000--000-|-0-----------0-----------| 
D|-0--0--000--0--00---00--0--000--000-|-0-----------0-----------| 
A|-5S44S5555--4S555S7s55s44s5554s5540-|-4-----------12----------|3x 
D|-0--0--000--0--00-- 00--0--000--000-|-4-----------12----------| 
A|-5S44S5555--4S555S7s55s44s5554s5540-|-2-----------10----------| 
D|-0--0--000--0--00---00--0--000--000-|-0-----------12----12s0--| 
   ---------                                  ------------- 
   Weve Seen                                  In an Instant 
   It Feels So Good                           Lets Find Peace 

D|-0-----0-----0-----0-------------0-| 
D|-0-----0-----0-----0-------------0-| 
A|-0-----0-----4-----0-------------0-|2x 
D|-0-----0-----4-----0-------------0-| 
A|-5-----4-----2-----5---5h3p03-5h40-| 
D|-0-----0-----0-----5---5h3p03-5--0-| 
   With Me                Above All 
   The Others             My Sacrifice 

D|-0--00xx-0--00xx-0--00xx-0--0--0--0--0--00xx-| 
D|-0--00xx-0--00xx-0--00xx-0--0--0--0--0--00xx-| 
A|-9s777xx-7s555xx-5s444xx-2s44s55s44s77s555xx-|4x 
D|-0--00xx-0--00xx-0--00xx-0--0--0--0--0--00xx-| 
A|-9s777xx-7s555xx-5s444xx-2s44s55s44s77s555xx-| 
D|-0--00xx-0--00xx-0--00xx-0--0--0--0--0--00xx-| 
   -------                   ------- 
   I Just Want               Hello Again 
   -------                   ------- 
   I Just Want               Hello Again 

D|-0-0-0-0-xx---0-0-0-0-xxxx-----| 
D|-0-0-0-0-xx---0-0-0-0-xxxx-----| 
A|-13131313xx---13131313xxxx-----| 
D|-0-0-0-0-xx---0-0-0-0-xxxx-----| 
A|-13131313xx---13131313xxxx-----| 
D|-0-0-0-0-xx---0-0-0-0-xxxx3s12-| 


D|-0-0-0-0-xx---0-0-0-0-x--xx0---| 
D|-0-0-0-0-xx---0-0-0-0-x--xx0---| 
A|-13131313xx---13131313x--xx0---| 
D|-0-0-0-0-xx---0-0-0-0-x--xx0---| 
A|-13131313xx---1313131313sxx0---| 
D|-0-0-0-0-xx---0-0-0-0-x--xx0---| 


D|-0-0-005s75400-2-222--0----0-------| 
D|-0-0-005s75400-2-222--0----0-------| 
A|-0-0-000--0000-0-000--4----0-------| 
D|-0-0-000--0000-0-000--4----0-------| 
A|-0-0-000----00-4-444--2----5-------| 
D|-0-0-000----00-0-000--0----5-------| 
  With Me                I Believe 


D|-0-0-005s75400-2-222--0-------(12)-| 
D|-0-0-005s75400-2-222--0-------(12)-| 
A|-0-0-000--0000-0-000--4-------(12)-| 
D|-0-0-000--0000-0-000--4-------(12)-| 
A|-0-0-000----00-4-444--2------------| 
D|-0-0-000----00-0-000--0----5s12----| 
  All the Others          My Eyes 


D|-0-----0-----0-----0-------------0-| 
D|-0-----0-----0-----0-------------0-| 
A|-0-----0-----4-----0-------------0-| 
D|-0-----0-----4-----0-------------0-| 
A|-5-----4-----2-----5---5h3p03-5h40-| 
D|-0-----0-----0-----5---5h3p03-5--0-| 
  With Me                 Above All 


D|-0-----0-----0-----0---0-0-------0-| 
D|-0-----0-----0-----0---0-0-------0-| 
A|-0-----0-----4-----4s101212----x-0-| 
D|-0-----0-----4-----4s101212----x-0-| 
A|-5-----4-----2-----2s101010----x-0-| 
D|-0-----0-----0-----0---1212---12s0-| 
  The Others              My Sacrifice 
	  

Search Paypal
auto scroll beats size up size down change color hide chords drawings
tab show chords e-chords YouTube Clip e-chords hide all tabs e-chords go to top tab