Boyce Avenue

home > Boyce Avenue

Game Of Thrones Main Theme Tab

Boyce Avenue

Difficulty: nolevelnolevel

by hebealmeida

tuner correct add songbook print version text version save to e-mail
chordsukulelecavacokeyboardtabbassdrumsharmonicsflute Guitar Pro
chords

Game Of Thrones Main Theme

  		Standar Tuning 
So.. this is my first tab.. Hope you like it 

e|-3------3------3------3------3------3------3------3-|------------------------------------------------| 
A|---5h7----5h7----5h7----5h7----6h7----6h7----6h7----|-/8-------8-------------------------------------|  
D|--5------3------3------3------3------3------3-------|------8-10-----8-10-7--10---7h8p7-10---8-7------|  
G|----------------------------------------------------|----10------10------------8----------8-----10---| 
B|----------------------------------------------------|------------------------------------------------|  
E|----------------------------------------------------|------------------------------------------------| 

0:26                                                    0:44 
E|-------------------------------------------------------|---------------------------------------------------|  
A|-----------/8-------8----------------------------------|------11-11/13----11----9------8/9-8--------6-/8-8-|  
D|------8h10------8-10-----8-10-7--10---7-8-7h8p7--------|-10-12---------10------------10-------8---8--------|  
G|-----8--------10------10------------8-----------8-8/10-|--------------------------10------------6----------|  
B|-8h10--------------------------------------------------|---------------------------------------------------|  
E|-------------------------------------------------------|---------------------------------------------------| 

1:01  
e|--------------------------------------------------------------|  
A|------11-11/13----13\-/11----9------8h9-8------h8-------------|  
D|-12-13---------10-----------------10-------8-10??-h8---8-\7-\5-|  
G|-------------------------------10-------------------6---------|  
B|--------------------------------------------------------------|  
E|--------------------------------------------------------------| 

1:21                                                                        1:31  
e|---------------------------------------------------------------------------|------------------|  
A|-------------10-------8----------------------------------------------------|------------------|  
D|-------7h8/10-----8-10-----8-10-7------7---------7---------7---------7-----|-10---7-7h8-7-----|  
G|---8h10---------10------10---------8h10??10po-8h10-10po-8h10-10po-8h10-10po-|----8--------8-10-|  
B|-10------------------------------------------------------------------------|------------------|  
E|---------------------------------------------------------------------------|------------------|  

                               1:39  
e|----------------------------|-------------------------------------------------|-----------------------------|  
A|----------------------------|-----------------11p13----13\-/11---9-----8h9-/8-|------8----------------------|  
D|----------------------------|---------11-13-15------10---------8-----10-------|-8-10---8---8-/10-10-/12-12--|  
G|--10----------10---------10-|-10-12-13-----------------------------10---------|----------6------------------|  
B|----13po-10h13??13po-10h13---|-------------------------------------------------|-----------------------------|  
E|----------------------------|-------------------------------------------------|-----------------------------| 

1:56  
e|------------------------------------------------------|--------------------|-----------------------------|  
A|-16-15-13-15-13-11-11/13----11h13-/11----9-----8h9-/8-|------8-------------|-----------------------------|  
D|-------------------------10-----------8------10-------|-8-10---8---8\7-7\5-|-5------5------5------5------|  
G|-------------------------------------------10---------|----------6---------|--5-6h8--5-6h8--5-6h8??-5-6h8-|  
B|------------------------------------------------------|--------------------|-----------------------------|  
E|------------------------------------------------------|--------------------|-----------------------------| 

2:15  
e|-8-------8-------8-------8--------|  
A|---8-9h11--8-9h11--8-9h11--8-9h11-|  
D|----------------------------------|  
G|----------------------------------|  
B|----------------------------------| 
E|----------------------------------| 
	  

Search Paypal
auto scroll beats size up size down change color hide chords drawings
tab show chords e-chords YouTube Clip e-chords hide all tabs e-chords go to top tab