Boyce Avenue

home > Boyce Avenue

Every Teardrop Is A Waterfall ( Cover ) Tab

Boyce Avenue

Difficulty: ExpertExpert

by terr%5Fschmitz

tuner correct add songbook print version text version save to e-mail
chordsukulelecavacokeyboardtabbassdrumsharmonicsflute Guitar Pro
chords

Every Teardrop Is A Waterfall ( Cover )

  		  


 e|-----0-----------0-------0---0-0---0-0---0-0---0-0----------------------------|  
 A|-----0-----------0-------0---0-0---0-0---0-0--1112----------------------------|  
 E|-----0-------5-5-4---7-7-5--1210---0-0---4-5--1212----------------------------|  
 D|-----0-------0-0-0---x-x-x---0-0--1211---4-4---0-0----------------------------|  
 A|-----5-------5-5-5---4-4-4--12-9---0-0---x-x---0-0----------------------------|  
 D|-----0-----------------------0-0--1211---4-4---0-0----------------------------|  

   
 e|-----0-0---0-0--------------------------------------------------------------|  
 A|-----0-0---0-0--------------------------------------------------------------|  
 E|----10-9---7-9--------------------------------------------------------------|  
 D|-----9-7---0-0--------------------------------------------------------------|  
 A|-----0-0---7-9--------------------------------------------------------------|  
 D|-----0-0---0-0--------------------------------------------------------------|  


 e|-----0-----------0-------0---0-0---0-0---0-0---0-0----------------------------|  
 A|-----0-----------0-------0---0-0---0-0---0-0--1112----------------------------|  
 E|-----0-------5-5-4---7-7-5--1210---0-0---4-5--1212----------------------------|  
 D|-----0-------0-0-0---x-x-x---0-0--1211---4-4---0-0----------------------------|  
 A|-----5-------5-5-5---4-4-4--12-9---0-0---x-x---0-0----------------------------|  
 D|-----0-----------------------0-0--1211---4-4---0-0----------------------------|  


 e|-----0-0---0-0---0-0---0-0----------------------------|  
 A|-----0-0---0-0---0-0--1112----------------------------|  
 E|----12-10--0-0---4-5--1212----------------------------|  
 D|-----0-0--1211---4-4---0-0----------------------------|  
 A|----12-9---0-0---x-x---0-0----------------------------|  
 D|-----0-0--1211---4-4---0-0----------------------------|  


 e|-----0-0---0-0--------------------------------------------------------------|  
 A|-----0-0---0-0--------------------------------------------------------------|  
 E|----10-9---7-9--------------------------------------------------------------|  
 D|-----9-7---0-0--------------------------------------------------------------|  
 A|-----0-0---7-9--------------------------------------------------------------|  
 D|-----0-0---0-0--------------------------------------------------------------|  


 e|-----0---0--0--0------------------------------------------------------------|  
 A|-----0---0--0--0------------------------------------------------------------|  
 E|-----0---5--0--5------------------------------------------------------------|  
 D|-----6---0--2--0------------------------------------------------------------|  
 A|-----7---5--4--5------------------------------------------------------------|  
 D|---------0--0--0------------------------------------------------------------|  


 e|-----0-0---0-0--------------------------------------------------------------|  
 A|-----0-0---0-0--------------------------------------------------------------|  
 E|----10-9---7-9--------------------------------------------------------------|  
 D|-----9-7---0-0--------------------------------------------------------------|  
 A|-----0-0---7-9--------------------------------------------------------------|  
 D|-----0-0---0-0--------------------------------------------------------------|  


 e|-----0-0-----0-0------------------------------------------------------------|  
 A|----1211-----0-0------------------------------------------------------------|  
 E|----1212----10-9------------------------------------------------------------|  
 D|-----0-0-----9-7------------------------------------------------------------|  
 A|-----0-0-----0-0------------------------------------------------------------|  
 D|-----0-0-----0-0------------------------------------------------------------|  

	  

Search Paypal
auto scroll beats size up size down change color hide chords drawings
tab show chords e-chords YouTube Clip e-chords hide all tabs e-chords go to top tab