Boyce Avenue

home > Boyce Avenue

Back For Good Tab

Boyce Avenue

Difficulty: BeginnerBeginner

by tarikike

tuner correct add songbook print version text version save to e-mail
chordsukulelecavacokeyboardtabbassdrumsharmonicsflute Guitar Pro
chords

Back For Good

  		

 
Intro (2x) 

e|-2----3----3----2--0--| 
B|-3----3----3----3--2--| 
G|-2----0----0----2--2--| 
D|-0----2----0----2--2--| 
A|-x----2----x----x--0--| 
E|-x----0----3----x--x--| 

Verse (4x)(slighly palm-muted)

e|-2----3----3----2--0--| 
B|-3----3----3----3--2--| 
G|-2----0----0----2--2--| 
D|-0----2----0----2--2--| 
A|-x----2----x----x--0--| 
E|-x----0----3----x--x--| 

Pre-chorus (slightly palm-muted)

e|-2----3----3----2--0----2----0----3----2--0--| 
B|-3----3----3----3--2----3----2----3----3--2--| 
G|-2----0----0----2--2----4----2----0----2--2--| 
D|-0----2----0----2--2----4----2----0----2--2--| 
A|-x----2----x----x--0----2----0----x----x--0--| 
E|-x----0----3----x--x----x----x----3----x--x--| 

Chorus (4x)

e|-2----3----3----2--0--| 
B|-3----3----3----3--2--| 
G|-2----0----0----2--2--| 
D|-0----2----0----2--2--| 
A|-x----2----x----x--0--| 
E|-x----0----3----x--x--| 

Bridge 

e|-2----2--2--------------2----2----2----0----3----2----0----0----0----x--x--x----| 
B|-0----3--2h3p2----------0----3----3----2----3----3----3----3----2----2--3--3/5~~| 
G|-0----2--0-------(x2)---0----2----4----2----0----2----2----2----2----2--2--2/4~~| 
D|-0----0--0--------------0----0----4----2----0----0----2----2----2----2--2--2/4~~| 
A|-x----0--x--------------x----x----2----0----x----0----0----0----0----0--0--x----| 
E|-3----x--x--------------3----x----x----x----3----2----x----x----x----x--x--x----| 

Outro

e|-2----3----3----2--0-----2----3----3----2--0---x--| 
B|-3----3----3----3--2h3---3----3----3----3--2---3~~| 
G|-2----0----0----2--2-----2----0----0----2--2---2~~| 
D|-0----2----0----2--2-----0----2----0----2--2---0~~| 
A|-x----2----x----x--0-----x----2----x----x--0---0~~| 
E|-x----0----3----x--x-----x----0----3----x--x---x--|  
	  

Search Paypal
auto scroll beats size up size down change color hide chords drawings
tab show chords e-chords YouTube Clip e-chords hide all tabs e-chords go to top tab