Boyce Avenue

home > Boyce Avenue

Want To Want Me Tab

Boyce Avenue

Difficulty: nolevelnolevel

by lucicamargo

tuner correct add songbook print version text version save to e-mail
chordsukulelecavacokeyboardtabbassdrumsharmonicsflute Guitar Pro
chords

Want To Want Me

  		Tabbed by: Stefan Premovic 

Tuning: c# - down 3 halfsteps 
        C# - up 2 halfsteps 
        G# - up 1 halfstep 
        C# - down 1 halfstep 
        G# - down 1 halfstep 
        C# - down 3 halfsteps 

Here is Alejandro’s part of the cover, in my opinion it’s enough, 
have fun playing, rate and comment. :) 


verse 1: 
   p.m. 
    v   v ^ v   v ^ v   v ^ v   v ^ v   v ^ v   v ^ v   v ^ v   v ^ 
c# |-----------------------------------------------------------------| 
C# |-----------------------------------------------------------------| 
G# |-----------------------------------------------------------------| 
C# |-----------------------------------------------------------------| 
G# |-5---5-5-5---5-5-5---5-5-5---5-4-5---5-5-5---5-5-5---5-5-4---4-4-|\ 
C# |-----------------------------------------------------------------| \ 
                                                                       x2 
c# |-----------------------------------------------------------------| / 
C# |-----------------------------------------------------------------|/ 
G# |-----------------------------------------------------------------| 
C# |-----------------------------------------------------------------| 
G# |-2---2-2-2---2-2-2---2-2-2---2-0-2---2-2-2---2-2-2---2-2-4---4-4-| 
C# |-----------------------------------------------------------------| 


verse 2: 
   p.m. 
c# |-----------------------------------------------------------------| 
C# |-----------------------------------------------------------------| 
G# |-----------------------------------------------------------------| 
C# |-----------------------------------------------------------------| 
G# |-5---5-5-5---5-5-5---5-5-5---5-4-5---5-5-5---5-5-5---5-5-4---4-4-| 
C# |-----------------------------------------------------------------| 

c# |-----------------------------------------------------------------| 
C# |-----------------------------------------------------------------| 
G# |-----------------------------------------------------------------| 
C# |-----------------------------------------------------------------| 
G# |-2---2-2-2---2-2-2---2-2-2---2-0-2---2-2-2---2-2-2---2-2-0---0-0-| 
C# |-----------------------------------------------------------------| 

c# |-----------------------------------------------------------------| 
C# |-----------------------------------------------------------------| 
G# |-----------------------------------------------------------------| 
C# |-----------------------------------------------------------------| 
G# |-----------------------------------------------------------------| 
C# |-5---5-5-5---5-5-5---5-5-5---5-4-5---5-5-5---5-5-5---5-5-7---7-7-| 

c# |-----------------------------------------------------------------| 
C# |-----------------------------------------------------------------| 
G# |-----------------------------------------------------------------| 
C# |-----------------------------------------------------------------| 
G# |-----------------------------------------------------------------| 
C# |-8---8-8-8---8-8-8---8-8-8---8-7-8---8-8-8---8-8-8\--------------| 


Chorus 1 (2 repeats, second repeat begins with *): 
    v *     v     ^ v ^ v   v     ^ v ^ v   v     ^ v ^ v   v 
c# |-0(0)----0-----0-0-0-0---0-----0-0-0-0---0-----0-0-0-0---0-------| 
C# |-0(0)----0-----0-0-0-0---0-----0-0-0-0---0-----0-0-0-0---0-------| 
G# |-5(0)----5-----5-5-5-5---5-----5-5-5-5---5-----5-5-5-5---4-------| 
C# |-0(0)----0-----0-0-0-0---0-----0-0-0-0---0-----0-0-0-0---0-------| 
G# |-5(0)----5-----5-5-5-5---5-----5-5-5-5---5-----5-5-5-5---4-------| 
C# |--(0)------------------------------------------------------------| 

c# |-0-------0-----0-0-0-0---0-----0-0-0-0---0-----0-0-0-0---0-------| 
C# |-0-------0-----0-0-0-0---0-----0-0-0-0---0-----0-0-0-0---0-------| 
G# |-2-------2-----2-2-2-2---2-----2-2-2-2---2-----2-2-2-2---0-------| 
C# |-0-------0-----0-0-0-0---0-----0-0-0-0---0-----0-0-0-0---0-------| 
G# |-2-------2-----2-2-2-2---2-----2-2-2-2---2-----2-2-2-2---0-------| 
C# |-----------------------------------------------------------------| 

c# |-0-------0-----0-0-0-0---0-----0-0-0-0---0-----0-0-0-0---0-------| 
C# |-0-------0-----0-0-0-0---0-----0-0-0-0---0-----0-0-0-0---0-------| 
G# |-5-------5-----5-5-5-5---5-----5-5-5-5---5-----5-5-5-5---7-------| 
C# |-0-------0-----0-0-0-0---0-----0-0-0-0---0-----0-0-0-0---0-------| 
G# |-x-------x-----x-x-x-x---x-----x-x-x-x---x-----x-x-x-x---x-------| 
C# |-5-------5-----5-5-5-5---5-----5-5-5-5---5-----5-5-5-5---7-------| 
                                                    v       v 
c# |-0-------0-----0-0-0-0---0-----0-0-0-0---0-------0-------0-------| 
C# |-0-------0-----0-0-0-0---0-----0-0-0-0---0-------0-------0-------| 
G# |-9-------9-----9-9-9-9---9-----9-9-9-9---9-------2p0-----0-------| 
C# |-0-------0-----0-0-0-0---0-----0-0-0-0---0-------0-------4\2-----| 
G# |-x-------x-----x-x-x-x---x-----x-x-x-x---x-------2p0-----x-------| 
C# |-9-------9-----9-9-9-9---9-----9-9-9-9---9---------------4\2-----| 


Interlude 1: 

c# |-0-------0-----0-0-0-0---0-----0-0-0-0---0-----0-0-0-0---0-------| 
C# |-0-------0-----0-0-0-0---0-----0-0-0-0---0-----0-0-0-0---0-------| 
G# |-5-------5-----5-5-5-5---5-----5-5-5-5---5-----5-5-5-5---4-------| 
C# |-0-------0-----0-0-0-0---0-----0-0-0-0---0-----0-0-0-0---0-------| 
G# |-5-------5-----5-5-5-5---5-----5-5-5-5---5-----5-5-5-5---4-------| 
C# |-----------------------------------------------------------------| 

c# |-0-------0-----0-0-0-0---0-----0-0-0-0---0-----0-0-0-0---0-------| 
C# |-0-------0-----0-0-0-0---0-----0-0-0-0---0-----0-0-0-0---0-------| 
G# |-2-------2-----2-2-2-2---2-----2-2-2-2---2-----2-2-2-2---0-------| 
C# |-0-------0-----0-0-0-0---0-----0-0-0-0---0-----0-0-0-0---0-------| 
G# |-2-------2-----2-2-2-2---2-----2-2-2-2---2-----2-2-2-2---0-------| 
C# |-----------------------------------------------------------------| 


verse 3: 
   p.m. 
c# |-----------------------------------------------------------------| 
C# |-----------------------------------------------------------------| 
G# |-----------------------------------------------------------------| 
C# |-----------------------------------------------------------------| 
G# |-5---5-5-5---5-5-5---5-5-5---5-4-5---5-5-5---5-5-5---5-5-4---4-4-| 
C# |-----------------------------------------------------------------| 

c# |-----------------------------------------------------------------| 
C# |-----------------------------------------------------------------| 
G# |-----------------------------------------------------------------| 
C# |-----------------------------------------------------------------| 
G# |-2---2-2-2---2-2-2---2-2-2---2-0-2---2-2-2---2-2-2---2-2-0---0-0-| 
C# |-----------------------------------------------------------------| 

c# |-----------------------------------------------------------------| 
C# |-----------------------------------------------------------------| 
G# |-----------------------------------------------------------------| 
C# |-----------------------------------------------------------------| 
G# |-----------------------------------------------------------------| 
C# |-5---5-5-5---5-5-5---5-5-5---5-4-5---5-5-5---5-5-5---5-5-7---7-7-| 

c# |-----------------------------------------------------------------| 
C# |-----------------------------------------------------------------| 
G# |-----------------------------------------------------------------| 
C# |-----------------------------------------------------------------| 
G# |-----------------------------------------------------------------| 
C# |-8---8-8-8---8-8-8---8-8-8---8-7-8\------------------------------| 

Chorus 2 ’ same as Chorus 1 

Interlude 2 ’ same as Interlude 1 

Bridge: 

c# |-0-------------------------------0-------------------------------| 
C# |-0-------------------------------0-------------------------------| 
G# |-5-------------------------------4-------------------------------| 
C# |-0-------------------------------2-------------------------------| 
G# |-x-------------------------------0-------------------------------| 
C# |-5---------------------------------------------------------------| 

c# |-0-------------------------------0-------------------------------| 
C# |-0-------------------------------0-------------------------------| 
G# |-2-------------------------------4-------------------------------| 
C# |-0-------------------------------0-------------------------------| 
G# |-2-------------------------------x-------------------------------| 
C# |---------------------------------4-------------------------------| 

c# |-0-------------------------------0-------------------------------| 
C# |-0-------------------------------0-------------------------------| 
G# |-5-------------------------------4-------------------------------| 
C# |-0-------------------------------2-------------------------------| 
G# |-x-------------------------------0-------------------------------| 
C# |-5---------------------------------------------------------------| 

c# |-0-------------------------------0-----0-----0---0-----0-----0---| 
C# |-0-------------------------------0-----0-----0---0-----0-----0---| 
G# |-2-------------------------------2-----2-----2---4-----4-----5---| 
C# |-0-------------------------------0-----0-----0---0-----0-----0---| 
G# |-2-------------------------------2-----2-----2---4-----4-----5---| 
C# |-----------------------------------------------------------------| 


Chorus 3: 
            v     ^ v ^ v   v     ^ v ^ v   v     ^ v ^ v   v      
c# |---------0-----0-0-0-0---0-----0-0-0-0---0-----0-0-0-0---0-------| 
C# |---------0-----0-0-0-0---0-----0-0-0-0---0-----0-0-0-0---0-------| 
G# |---------5-----5-5-5-5---5-----5-5-5-5---5-----5-5-5-5---4-------| 
C# |---------0-----0-0-0-0---0-----0-0-0-0---0-----0-0-0-0---0-------| 
G# |---------5-----5-5-5-5---5-----5-5-5-5---5-----5-5-5-5---4-------| 
C# |-----------------------------------------------------------------| 

c# |-0-------0-----0-0-0-0---0-----0-0-0-0---0-----0-0-0-0---0-------| 
C# |-0-------0-----0-0-0-0---0-----0-0-0-0---0-----0-0-0-0---0-------| 
G# |-2-------2-----2-2-2-2---2-----2-2-2-2---2-----2-2-2-2---0-------| 
C# |-0-------0-----0-0-0-0---0-----0-0-0-0---0-----0-0-0-0---0-------| 
G# |-2-------2-----2-2-2-2---2-----2-2-2-2---2-----2-2-2-2---0-------| 
C# |-----------------------------------------------------------------| 

c# |-0-------0-----0-0-0-0---0-----0-0-0-0---0-----0-0-0-0---0-------| 
C# |-0-------0-----0-0-0-0---0-----0-0-0-0---0-----0-0-0-0---0-------| 
G# |-5-------5-----5-5-5-5---5-----5-5-5-5---5-----5-5-5-5---7-------| 
C# |-0-------0-----0-0-0-0---0-----0-0-0-0---0-----0-0-0-0---0-------| 
G# |-x-------x-----x-x-x-x---x-----x-x-x-x---x-----x-x-x-x---x-------| 
C# |-5-------5-----5-5-5-5---5-----5-5-5-5---5-----5-5-5-5---7-------| 

c# |-0-------0-----0-0-0-0---0-----0-0-0-0---0-------0-------0-------| 
C# |-0-------0-----0-0-0-0---0-----0-0-0-0---0-------0-------0-------| 
G# |-9-------9-----9-9-9-9---9-----9-9-9-9---9-------2p0-----0-------| 
C# |-0-------0-----0-0-0-0---0-----0-0-0-0---0-------0-------4\2-----| 
G# |-x-------x-----x-x-x-x---x-----x-x-x-x---x-------2p0-----x-------| 
C# |-9-------9-----9-9-9-9---9-----9-9-9-9---9---------------4\2-----| 

c# |-0-------0-----0-0-0-0---0-----0-0-0-0---0-----0-0-0-0---0-------| 
C# |-0-------0-----0-0-0-0---0-----0-0-0-0---0-----0-0-0-0---0-------| 
G# |-0-------5-----5-5-5-5---5-----5-5-5-5---5-----5-5-5-5---4-------| 
C# |-0-------0-----0-0-0-0---0-----0-0-0-0---0-----0-0-0-0---0-------| 
G# |-0-------5-----5-5-5-5---5-----5-5-5-5---5-----5-5-5-5---4-------| 
C# |-0---------------------------------------------------------------| 

c# |-0-------0-----0-0-0-0---0-----0-0-0-0---0-----0-0-0-0---0-------| 
C# |-0-------0-----0-0-0-0---0-----0-0-0-0---0-----0-0-0-0---0-------| 
G# |-2-------2-----2-2-2-2---2-----2-2-2-2---2-----2-2-2-2---0-------| 
C# |-0-------0-----0-0-0-0---0-----0-0-0-0---0-----0-0-0-0---0-------| 
G# |-2-------2-----2-2-2-2---2-----2-2-2-2---2-----2-2-2-2---0-------| 
C# |-----------------------------------------------------------------| 

c# |-0-------0-----0-0-0-0---0-----0-0-0-0---0-----0-0-0-0---0-------| 
C# |-0-------0-----0-0-0-0---0-----0-0-0-0---0-----0-0-0-0---0-------| 
G# |-5-------5-----5-5-5-5---5-----5-5-5-5---5-----5-5-5-5---7-------| 
C# |-0-------0-----0-0-0-0---0-----0-0-0-0---0-----0-0-0-0---0-------| 
G# |-x-------x-----x-x-x-x---x-----x-x-x-x---x-----x-x-x-x---x-------| 
C# |-5-------5-----5-5-5-5---5-----5-5-5-5---5-----5-5-5-5---7-------| 

c# |-0-------0-----0-0-0-0---0-----0-0-0-0---0-------0-------0-------| 
C# |-0-------0-----0-0-0-0---0-----0-0-0-0---0-------0-------0-------| 
G# |-9-------9-----9-9-9-9---9-----9-9-9-9---9-------2p0-----0-------| 
C# |-0-------0-----0-0-0-0---0-----0-0-0-0---0-------0-------4\2-----| 
G# |-x-------x-----x-x-x-x---x-----x-x-x-x---x-------2p0-----x-------| 
C# |-9-------9-----9-9-9-9---9-----9-9-9-9---9---------------4\2-----| 


Outro: 

c# |-0-------0-----0-0-0-0---0-----0-0-0-0---0-----0-0-0-0---0-------| 
C# |-0-------0-----0-0-0-0---0-----0-0-0-0---0-----0-0-0-0---0-------| 
G# |-5-------5-----5-5-5-5---5-----5-5-5-5---5-----5-5-5-5---4-------| 
C# |-0-------0-----0-0-0-0---0-----0-0-0-0---0-----0-0-0-0---0-------| 
G# |-5-------5-----5-5-5-5---5-----5-5-5-5---5-----5-5-5-5---4-------| 
C# |-----------------------------------------------------------------| 

c# |-0-------0-----0-0-0-0---0-----0-0-0-0---0-----0-0-0-0---0-------| 
C# |-0-------0-----0-0-0-0---0-----0-0-0-0---0-----0-0-0-0---0-------| 
G# |-2-------2-----2-2-2-2---2-----2-2-2-2---2-----2-2-2-2---4-------| 
C# |-0-------0-----0-0-0-0---0-----0-0-0-0---0-----0-0-0-0---0-------| 
G# |-2-------2-----2-2-2-2---2-----2-2-2-2---2-----2-2-2-2---4-------| 
C# |-----------------------------------------------------------------| 

c# |-0-------0-----0-0-0-0---0-----0-0-0-0---0-----0-0-0-0---0-------| 
C# |-0-------0-----0-0-0-0---0-----0-0-0-0---0-----0-0-0-0---0-------| 
G# |-5-------5-----5-5-5-5---5-----5-5-5-5---5-----5-5-5-5---4-------| 
C# |-0-------0-----0-0-0-0---0-----0-0-0-0---0-----0-0-0-0---0-------| 
G# |-5-------5-----5-5-5-5---5-----5-5-5-5---5-----5-5-5-5---4-------| 
C# |-----------------------------------------------------------------| 

c# |-0-------0-----0-0-0-0---0-----0-0-0-0---0-----0-0-0-0---0-------| 
C# |-0-------0-----0-0-0-0---0-----0-0-0-0---0-----0-0-0-0---0-------| 
G# |-2-------2-----2-2-2-2---2-----2-2-2-2---2-----2-2-2-2---0-------| 
C# |-0-------0-----0-0-0-0---0-----0-0-0-0---0-----0-0-0-0---0-------| 
G# |-2-------2-----2-2-2-2---2-----2-2-2-2---2-----2-2-2-2---0-------| 
C# |-----------------------------------------------------------------| 

c# |-----------------------------------------------------------------| 
C# |-----------------------------------------------------------------| 
G# |-----------------------------------------------------------------| 
C# |-+12+------------------------------------------------------------| 
G# |-+12+------------------------------------------------------------| 
C# |-+12+------------------------------------------------------------| 

************************************ 

| \     slide down 
| p     pull-off 
| +     harmonic 
| x     mute note 
| v     strum(pick) down 
| ^     strum(pick) up 
| p.m.  palm mute 

************************************ 

Lyrics: 

/verse 1/ 
It's too hard to sleep 
I got the sheets on the floor, nothing on me 
And I can't take it no more, it's a hundred degrees 
I got one foot out the door, where are my keys? 
'Cause I gotta leave yeah 

/verse 2/ 
In the back of the cab 
I tipped the driver ’head of time, get me there fast 
I got your body on my mind, I want it bad 
Oh just the thought of you gets me so high 
So high 

/Chorus 1/ 
Girl you’re the one I want to want me 
And if you want me, girl you got me 
There’s nothing I, no I wouldn’t do (I wouldn’t do) 
Just to get up next to you 

Girl you’re the one I want to want me 
And if you want me, girl you got me 
There’s nothing I, no I wouldn’t do (I wouldn’t do) 
Just to get up next to you 

/Interlude 1/ 
Just to get up next to you 

/verse 3/ 
You open the door 
Wearing nothing but a smile down to the floor 
And you whisper in my ear, ’Baby I’m yoursâ?ť 
Ooh just the thought of you gets me so high, so high 
So high 

/Chorus 2/ 
Girl you’re the one I want to want me 
And if you want me, girl you got me 
There’s nothing I, no I wouldn’t do (I wouldn’t do) 
Just to get up next to you 

Girl you’re the one I want to want me 
And if you want me, girl you got me 
There’s nothing I, no I wouldn’t do (I wouldn’t do) 
Just to get up next to you 

/Interlude 2/ 
Just to get up next to you 

/Bridge/ 
Just the thought of you 
Gets me so high, so high 
Oh just the thought of you 
Gets me so high, so high 

/Chorus 3/ 
tabchorus
Girl you’re the one I want to want me And if you want me, girl you got me There’s nothing I, no I wouldn’t do (I wouldn’t do) Just to get up next to you
tab
Girl you’re the one I want to want me And if you want me, girl you got me There’s nothing I, no I wouldn’t do (I wouldn’t do) Just to get up next to you /Outro/ And I would do anything Anything and everything Just to get up next to you

Full key step upFull key step up
Half key step upHalf key step up
Half key step downHalf key step down
Full key step downFull key step down
Search Paypal
auto scroll beats size up size down change color hide chords drawings
tab show chords e-chords YouTube Clip e-chords hide all tabs e-chords go to top tab