Boyce Avenue

home > Boyce Avenue

Medley (alicia Keys) Tab

Boyce Avenue

Difficulty: nolevelnolevel

by gustsilva

tuner correct add songbook print version text version save to e-mail
chordsukulelecavacokeyboardtabbassdrumsharmonicsflute Guitar Pro
chords

Medley (alicia Keys)

  		Key of A 

Tuning: D  A  D  E  A  E 

X = mute 
/ = slide up 

verse 1: 
 
----0--------0--------0--------0---| 
---0--0-----0--0-----0--0-----0--0-| 
--0--------0-----------------2-----| 
--------------------6--------------| 
-0--------4------------------------| 
-------------------4--------0------| 
 

Pre-Chorus: 
 
---0-------0---0---| 
-----0-----------0-| 
--0-------0---0----| 
-x------x----------| (play 2 times) 
-2----/-4----0-----| 
-2----/-4----0-----| 
 

Chorus: 
 
-0----0----0----0-| 
-0----0----0----0-| 
-0----7----0----2-| 
-7----6----6----0-| (play 2 times) 
-0----7----4----0-| 
------6----4----0-| 
 

verse 2: (palm mute throughout) (play loosely) 
 
-------------0---------------------0---------| 
-----0---------0----0------0-0--------0---0--| 
---0---0---0-------0-----0---0---0------0----| 
-2-------2-------2---------------------------| 
-0-------0-------0-----4-------4-------4-----| 
---------------------------------------------| 
 

 
-----0---------------------------------------| 
-------0-----0------0------0-------0-------0-| 
---0-----------0---------0---0---0---0---0---| 
-----------6-------6-----0-------0-------0---| 
-4-------4-------4-----0-------0-------0-----| 
-4-------4-------4-----0-------0-------0-----| 
 

Pre-Chorus 2: (slight palm mute) 
 
-----0-------0------0------0-------0-------0-| 
-----0-0-----0-0----0------0-0-----0-0-----0-| 
---0---0---0---0---0-----0---0---0---0---0---| (play 2 times) 
-x-------x-------x-----x---------------------| 
-2-------2-----/-4-----0-------0-------0-----| 
-2-------2-----/-4-----0-------0-------0-----| 
 

Bridge: (palm mute) 
 
---------------------------------------| 
-----0-----0------------0-----0--------| 
---0---0--0-----------0---0--0---------| 
---------------------------------------| 
-0-------0--0-2-4-0------------------0-| 
--------------------6-------6--2-4-6---| 
                                          (play 3 times) 

 
---------------------------------------| 
-----0-----0------------0--------------| 
---0---0--0-----------0---0--0---------| 
---------------------------------------| 
------------------0--------------5---5-| 
-4-------4--2-4-6---0-------0--0---0---| 
 

 
-0----0----0----0-| 
-0----0----0----0-| 
-0----0----0----2-| (slight palm mute) (play 2 times) 
-2----4--/-6----0-| 
-0----2--/-4----0-| 
------2--/-4----0-| 
 

Outro: 
-0----0----0----0----0----0----0----0----0-| 
-0----0----0----0----0----0----0----0----0-| 
-2--/-4--/-5--/-7----2--/-4--/-5--/-7----0-| 
-0----2--/-4--/-6----0----2--/-4--/-6----7-| 
-0----0----0----0----0----x----x----x----0-| 
-0----0----0----0----0----2--/-4--/-6------|