Boyce Avenue

home > Boyce Avenue

Firework Ft David Choi Tab

Boyce Avenue

Difficulty: BeginnerBeginner

by mar%2Dgobbo

tuner correct add songbook print version text version save to e-mail
chordsukulelecavacokeyboardtabbassdrumsharmonicsflute Guitar Pro
chords

Firework Ft David Choi

(Boyce Avenue)

  		

0:00-0:16 

e|----------------------------------------| 
B|----------------------------------------| 
G|-----7h9----7-10-9----5-7-7h9-----------| 
D|----------------------------------------| x 1 
A|----------------------------------------| 
E|----------------------------------------| 

e|----------------------------------------| 
B|----------------------------------------| 
G|-----7-10-9----5-7-7-9------------------| x 1 
D|----------------------------------------| 
A|----------------------------------------| 
E|----------------------------------------| 

0:17-1:05 
e|----------------------------------------| 
B|----------------------------------------| 
G|------9--7--5--10-----------------------| x 6 
D|----------------------------------------| 
A|----------------------------------------| 
E|----------------------------------------| 

1:06-1:37 

e|-----------------------| 
B|--8-8-8-6-5-5-6-6------| 
G|---0-0-0-0-0-0-0-0-----| 
D|-----------------------| x 9 
A|-----------------------| 
E|-----------------------| 

1:39-1:56 

e|------------------------------------------| 
B|----5---5---3---6---5------6--------------| 
G|------5---5---5---5---5-5----5------------|  x 2 
D|------------------------------------------| 
A|------------------------------------------| 
E|------------------------------------------| 




1:57-2:45 

e|--------------------------------------------------| 
B|--------------------------------------------------| 
G|-----9---7---5---10-------------------------------| x 6 
D|--------------------------------------------------| 
A|--------------------------------------------------| 
E|--------------------------------------------------| 

2:46-4:15 

e|-----------------------| 
B|--8-8-8-6-5-5-6-6------| 
G|---0-0-0-0-0-0-0-0-----| 
D|-----------------------| 
A|-----------------------| 
E|-----------------------| 

on the last bar, variate slightly to 

e|-----------------------| 
B|--8-8-8-6-5-5-6-6-3----| 
G|---0-0-0-0-0-0-0-0-0---| 
D|-----------------------| 
A|-----------------------| 
E|-----------------------| 

4:16 - End 

e|------------------------------------------| 
B|----5---5---3---6---5------6--------------| 
G|------5---5---5---5---5-5----5------------| x 2 
D|------------------------------------------| 
A|------------------------------------------| 
E|------------------------------------------|  
	  

Search Paypal
auto scroll beats size up size down change color hide chords drawings
tab show chords e-chords YouTube Clip e-chords hide all tabs e-chords go to top tab