Boyce Avenue

home > Boyce Avenue

Iris Tab

Boyce Avenue

Difficulty: IntermediateIntermediate

by gustsilva

tuner correct add songbook print version text version save to e-mail
chordsukulelecavacokeyboardtabbassdrumsharmonicsflute Guitar Pro
chords

Iris

Key:  E More
Iris Key BB
Iris Key CC
Iris Key C#C#
Iris Key DD(one step down)
Iris Key D#D#(half step down)
Iris Key EE(original key)
Iris Key FF(half step up)
Iris Key F#F#(one step up)
Iris Key GG
Iris Key G#G#
Iris Key AA
Iris Key A#A#
  		

Tuning: E A D G B e



(intro 2x)  

 
-0----0---0---0---0-0-0-| 
-0----0---0---0---0-0-0-| 
-0----0---5---4---5-4-0-| 
-12---11--0---0---0-0-0-| 
-9----9---5---5---5-5-5-| 
-0----0-----------------| 
 

(verse 1 - 4x) 

 
-----0---------0---------0---------0-----| 
---------0---------0---------0---------0-| 
-------0---------0---------0---------0---| 
---0---------0---------0---------0-------| 
-0---------2---------5---------5---------| 
-----------------------------------------| 
 

 
-----0---------0---------0---------0-----| 
---------0---------0---------0---------0-| 
-------0---------0---------0---------0---| 
---0---------0---------0---------0-------| 
-9---------7---------5---------5---------| 
-----------------------------------------| 
 

(Chorus 1 - 4x) 

 
-0----0----0----0-| 
-0----0----0----0-| 
-0----0----0----0-| 
-9----7----5----5-| 
-9----7----5----5-| 
------------------| 
 

(turnaround) 

 
-0----0---0---0---0-0-0--0----0---4---2---0-| 
-0----0---0---0---0-0-0--0----0---0---0---0-| 
-0----0---5---4---5-4-0--0----0---5---4---0-| 
-12---11--0---0---0-0-0--12---11--0---0---0-| 
-9----9---5---5---5-5-5--9----9---5---5---5-| 
-0----0------------------0----0-------------| 
 

(verse 2 - 2x) 

 
-----0---------0---------0---------0-----| 
---------0---------0---------0---------0-| 
-------0---------0---------0---------0---| 
---0---------0---------0---------0-------| 
-0---------2---------5---------5---------| 
-----------------------------------------| 
 

 
-----0---------0---------0---------0-----| 
---------0---------0---------0---------0-| 
-------0---------0---------0---------0---| 
---0---------0---------0---------0-------| 
-9---------7---------5---------5---------| 
-----------------------------------------| 
 

(Chorus 2 - 4x) 

 
-0----0----0----0-| 
-0----0----0----0-| 
-0----0----0----0-| 
-9----7----5----5-| 
-9----7----5----5-| 
------------------| 
 

(bridge) 

 
-0----0---0---0---0-0-0--0----0--| 
-0----0---0---0---0-0-0--0----0--| 
-0----0---5---4---5-4-0--0----0--| 
-12---11--0---0---0-0-0--12---11-| 
-9----9---5---5---5-5-5--9----9--| 
-0----0------------------0----0--| 
 

 
----0----0-----0-----0-------| 
----0----0-----0-----0-0--0--| 
--0----0-----0-----0---0--0--| 
--0----0-----0-----0---0--0--| 
-----------------------------| 
-0----2----3-----5-----7\-5/-| 
 

 
-9---7---9---7----9---7---9---7-| 
-0---0---0---0----0---0---0---0-| 
-0---0---0---0----0---0---0---0-| 
-0---0---0---0----0---0---0---0-| 
-x---x---x---x----x---x---x---x-| 
-8---8---8---8----7---7---7---7-| 
 

 
-9---7---9---7----0---0---0---0---0--| 
-0---0---0---0----0---0---0---0---0--| 
-0---0---0---0----9---11--12--14--16-| 
-0---0---0---0----0---0---0---0---0--| 
-x---x---x---x----9---11--12--14--16-| 
-8---8---8---8----0---0---0---0---0--| 
 

 
-9---7---9---7----9---7---9---7-| 
-0---0---0---0----0---0---0---0-| 
-0---0---0---0----0---0---0---0-| 
-0---0---0---0----0---0---0---0-| 
-x---x---x---x----x---x---x---x-| 
-8---8---8---8----7---7---7---7-| 
 

 
-0---------0-----0-----0-----0---0---0-| 
-0---------0-----0-----0-----0---0---0-| 
-0-------0-----0-----0-----0-----------| 
-0-------0-----0-----0-----0-----------| 
-9-----9-----7-----5-------------------| 
-0-----------------------7-----5---3---| 
 

(breakdown) 

 
-----0---------0---------0---------0-----| 
---------0---------0---------0---------0-| 
-------0---------0---------0---------0---| 
---0---------0---------0---------0-------| 
-----------------------------------------| 
0----------2---------3---------3---------| 
 

 
-----0---------0---------0---------0-----| 
---------0---------0---------0---------0-| 
-------0---------0---------0---------0---| 
---0---------0---------0---------0-------| 
-----------7---------5---------5---------| 
-2---------------------------------------| 
 

 
-----0---------0---------0---------0-----| 
---------0---------0---------0---------0-| 
-------0---------0---------0---------0---| 
---0---------0---------0---------0-------| 
-----------------------------------------| 
0----------2---------3---------3---------| 
 

 
-----0---------0-----0-| 
---------0---------0-0-| 
-------0---------0---0-| 
---0---------0-------0-| 
-----------7---------5-| 
-0---------------------| 
 

(Chorus 3 - 3x) 

 
-0----0----0----0-| 
-0----0----0----0-| 
-0----0----0----0-| 
-9----7----5----5-| 
-9----7----5----5-| 
------------------| 
 

(play 4x) 

-0----0----0----0-| 
-0----0----0----0-| 
-0----0----0----0-| 
-0----0----0----0-| 
-9----7----5----5-| 
------------------| 
	  

Search Paypal
auto scroll beats size up size down change color hide chords drawings
tab show chords e-chords YouTube Clip e-chords hide all tabs e-chords go to top tab