Boyce Avenue

home > Boyce Avenue

I'll Be There For You Tab

Boyce Avenue

Difficulty: BeginnerBeginner

by gustsilva

tuner correct add songbook print version text version save to e-mail
chordsukulelecavacokeyboardtabbassdrumsharmonicsflute Guitar Pro
chords

I'll Be There For You

  		

Intro: 
|------------------------------------| 
|------------------------------------| 
|------2^4--4^2^0--------0--0^2--0---| 
|-------------------2--2-------------|   (Play 2x) 
|------------------------------------| 
|---3--------------------------------| 

Verse 1: 
|------------------------------------------------------------| 
|------------------------------------------------------------| 
|-------0------0-----0---------------0------0-----0------4---| 
|-----0------0-----0-------2-------0------0-----0-------4----| 
|-------------------------2---------------------------2------| 
|---3------3------3-----1--------3------3------3-------------| 

|-------------0---------------------------------------------------------------| 
|---1---------------------0----------0--0^2--0---------1----------1-----------| 
|-----2---2-----0---0-------0---0^2-------------2^0------2----2------0---0----| 
|-------3---------2-----------0-----------------------------3----------2------| 
|-------------3---------------------------------------------------------------| 
|---1---------------------3-------------3--------------1-----------0----------| 

|------------------| 
|---3--------------| 
|------2-----2-----| 
|--------0-----0---| 
|---0------0-------| 
|------------------| 

Chorus 1: 
|----------------------------------------------------------------| 
|---0----0----3-------0----0----3-------0----0----3---------1----| 
|---0----0----2-------0----0----2-------0----0----2---------2----| 
|---0----2----0-------0----2----0-------0----2----0---------3----| 
|--------3----0------------3----0------------3----0---------3----| 
|---3-----------------3-----------------3------------------------| 

Verse 2: 
|-------------------------------------------------------------------------| 
|---------0---------0----------0-------------------0--------0-------0-----| 
|-------0---0-----0---0------0---0-------3-------0--0-----0--0----0--0----| 
|-----0---------0----------0-----------2---2----0--------0-------0--------| 
|------------------------------------2------------------------------------| 
|---3---------3----------3---------1-----------3--------3-------3---------| 

|-----------------------------0-----------------------------------------------------| 
|---------3---------1----------------------0----------0--0^2--0---------1-----------| 
|-------4---4---------2---2-----0---0--------0---0^2-------------2^0------2----2----| 
|-----4-----------------3---------2------------0-----------------------------3------| 
|---2-------------------------------------------------------------------------------| 
|-------------------1---------0----------3---------------3--------------1-----------| 

|---------------------0---0^2-------3^2------| 
|---1----------3---3-------------3-------3---| 
|-----0---0------2-------------2-------------| 
|-------2---------------0--------------------| 
|--------------0-----------------------------| 
|---0----------------------------------------| 

Chorus 2: 
|------------------------------------0---0^2-----3^2-----| 
|---0------0-----0------0-----3---3------------3------3--| 
|-----0-----0------0-----0------2------------2-----------| (repeat 3x) 
|-------0----0-------2----2------------0-----------------| 
|----------------3------------0--------------------------| 
|---3----------------------------------------------------| 

|---------------0-----------| 
|---1-----1-------1---1-----| 
|-----2-----2-------2---2---| 
|-------3-------------------| 
|---3-----------3-----------| 
|---------------------------| 

Solo: 
|----------------------------------------------------------------------| 
|-------1^3----1^0----------------------------3-------(7)--5--3--0-----| 
|-----0--------------4^2^0-------0^2^4-2----2---2----------------------| 
|----------------------------0^2-------0------------0------------------| 
|--------------------3-------3-----------------------------------------| 
|---3--------3---------------------------------------------------------| 

|------------------------------------------0-------3^2------0^2-------| 
|-------1^3----1^0----3^5---------------3---3---------3---------3-----| 
|-----0---------------------4\2--2-----2-------2---------2---------2--| 
|------------------------------------0-------------0------------------| 
|---------------------3-----------------------------------------------| 
|---3--------3--------------------------------------------------------| 

Chorus 3: 
|------------------------------------0---0^2-----3^2-----| 
|---0------0-----0------0-----3---3------------3------3--| 
|-----0-----0------0-----0------2------------2-----------| (repeat 3x) 
|-------0----0-------2----2------------0-----------------| 
|----------------3------------0--------------------------| 
|---3----------------------------------------------------| 

|---------------0-----------| 
|---1-----1-------1---1-----| 
|-----2-----2-------2---2---| 
|-------3-------------------| 
|---3-----------3-----------| 
|---------------------------| 

Outro: 
|-----------------------------------------------------------------------| 
|-----0-----------0^1-----1^0-------------------------------------------| 
|-------0---0---------0-------0--------0^2--2^0----2^3--2^0--2----0-----| 
|---------0---0---------0-------0----------------3--------------3-------| 
|-----------------------------------------------------------------------| 
|---3-------------3-----------------1-----------------------------------| 
	  

Search Paypal
auto scroll beats size up size down change color hide chords drawings
tab show chords e-chords YouTube Clip e-chords hide all tabs e-chords go to top tab