Boyce Avenue

home > Boyce Avenue

This Is What You Came For (acoustic) Tab

Boyce Avenue

Difficulty: nolevelnolevel

by ang%2Dletra

tuner correct add songbook print version text version save to e-mail
chordsukulelecavacokeyboardtabbassdrumsharmonicsflute Guitar Pro
chords

This Is What You Came For (acoustic)

  		
 

Verse 

      Em    C                         Em        C                      Em 
e|---------------------------------------------------------------------------| 
B|----0-----1-------------------------0---------1----------------------0-----| 
G|----0-----0-------------------------0---------0----------------------0-----| 
D|---------------------------------------------------------------------------| 
A|----2-----3-------------------------2---------3----------------------2-----| 
E|---------------------------------------------------------------------------| 
      Baby, this is what you came for Lightning strikes every time she moves 

      C     Dadd4                     C 
e|---------------------------------------------------------------------------| 
B|----1-----3-------------------------0--------------------------------------| 
G|----0-----0-------------------------0--------------------------------------| 
D|---------------------------------------------------------------------------| 
A|----3-----5-------------------------3--------------------------------------| 
E|---------------------------------------------------------------------------| 
            Everybody's watching her, but she's looking at  


Chorus 

     Em        C           Dadd4    Dadd4 
e|---------------------------------------------------------------------------| 
B|------0----0----1----1-----3---3----3----3---------------------------------| 
G|----------0---------0---------0---------0----------------------------------| 
D|-----0---0-----2---2------4--4-----4---4-----------------------------------| 
A|----2---------3----------5--------5----------------------------------------| 
E|---------------------------------------------------------------------------| 
      You...    You...     You...        But She's looking at  

      Em        C           Dadd4    Dadd4 
e|---------------------------------------------------------------------------| 
B|------0----0----1----1-----3---3----3----3---------------------------------| 
G|----------0---------0---------0---------0----------------------------------| 
D|-----0---0-----2---2------4--4-----4---4-----------------------------------| 
A|----2---------3----------5--------5----------------------------------------| 
E|---------------------------------------------------------------------------| 
      You...    You...     You...   Ooh... 


Verse 

      Em    C                         Em        C                      Em 
e|---------------------------------------------------------------------------| 
B|----0--0--1------------1------------0----0----1-------------1--------0-----| 
G|----0--0--0------------0------------0----0----0-------------0--------0-----| 
D|---------------------------------------------------------------------------| 
A|----2--2--3------------3------------2----2----3-------------3--------2-----| 
E|-----X---X--------X-------------X------X----X---------X----------X---------| 
      Baby, this is what you came for Lightning strikes every time she moves 

      C     Dadd4                     C 
e|---------------------------------------------------------------------------| 
B|----1-----3-------------------------0--------------------------------------| 
G|----0-----0-------------------------0--------------------------------------| 
D|---------------------------------------------------------------------------| 
A|----3-----5-------------------------3--------------------------------------| 
E|------------------------------------------------------X--------------------| 
            Everybody's watching her, but she's looking at  

      Em          C           Dadd4       Dadd4 
e|---------------------------------------------------------------------------| 
B|------0----0------1---1-------3---3-------3---3----------------------------| 
G|------0----0------0---0-------0---0-------0---0----------------------------| 
D|---------------------------------------------------------------------------| 
A|----2-----------3-----------5-----------5----------------------------------| 
E|--------X----X------X----X------X----X------X----X-------------------------| 
      You...      You...      You...          But She's looking at 

      Em          C           Dadd4       Dadd4 
e|---------------------------------------------------------------------------| 
B|------0----0------1---1-------3---3-------3---3----------------------------| 
G|------0----0------0---0-------0---0-------0---0----------------------------| 
D|---------------------------------------------------------------------------| 
A|----2-----------3-----------5-----------5----------------------------------| 
E|--------X----X------X----X------X----X------X----X-------------------------| 
      You...      You...      You...       Ooh... 


Verse 


      Em    C                         Em        C                      Em 
e|---------------------------------------------------------------------------| 
B|----0--0--1------------1------------0----0----1-------------1--------0-----| 
G|----0--0--0------------0------------0----0----0-------------0--------0-----| 
D|---------------------------------------------------------------------------| 
A|----2--2--3------------3------------2----2----3-------------3--------2-----| 
E|-----X---X--------X-------------X------X----X---------X----------X---------| 
      Baby, this is what you came for Lightning strikes every time she moves 

      C     Dadd4                     C 
e|---------------------------------------------------------------------------| 
B|----1-----3-------------------------0--------------------------------------| 
G|----0-----0-------------------------0--------------------------------------| 
D|---------------------------------------------------------------------------| 
A|----3-----5-------------------------3--------------------------------------| 
E|------------------------------------------------------X--------------------| 
            Everybody's watching her, but she's looking at  

      Em          C           Dadd4       Dadd4 
e|---------------------------------------------------------------------------| 
B|------0----0------1---1-------3---3-------3---3----------------------------| 
G|------0----0------0---0-------0---0-------0---0----------------------------| 
D|---------------------------------------------------------------------------| 
A|----2-----------3-----------5-----------5----------------------------------| 
E|--------X----X------X----X------X----X------X----X-------------------------| 
      You...      You...      You...          But She's looking at 

      Em          C           Dadd4       Dadd4 
e|---------------------------------------------------------------------------| 
B|------0----0------1---1-------3---3-------3---3----------------------------| 
G|------0----0------0---0-------0---0-------0---0----------------------------| 
D|---------------------------------------------------------------------------| 
A|----2-----------3-----------5-----------5----------------------------------| 
E|--------X----X------X----X------X----X------X----X-------------------------| 
      You...      You...      You...       Ooh... 



************************************ 

| X    Slap String with thumb. 

************************************ 
	  

Full key step upFull key step up
Half key step upHalf key step up
Half key step downHalf key step down
Full key step downFull key step down
Search Paypal
auto scroll beats size up size down change color hide chords drawings
tab show chords e-chords YouTube Clip e-chords hide all tabs e-chords go to top tab