Seventh Day Slumber

home > Seventh Day Slumbe...

Undone Tab

Seventh Day Slumber

Difficulty: nolevelnolevel

by tercmoraes

tuner correct add songbook print version text version save to e-mail
chordsukulelecavacokeyboardtabbassdrumsharmonicsflute Guitar Pro
chords

Undone

  		(intro) 
|0----0---------0-------------------------|-0----0---------0-----------------| 
|0h1----1---------1-------1------0h1p0----|-0h1----1---------1-------1-------| 
|2----------0-------0---0---0---0------0--|-2----------0-------0---0---0-----| 
|2--------3---3--------------------------0|-2--------3---3-------------------| 
|0--------------------3-------2-----------|-0--------------------3-------2~~~| 
|-----------------------------------------|----------------------------------| 

(verso)                                (3x) 
|0----0---------0-------------------------|-0----0---------0-----------------| 
|0h1----1---------1-------1------0h1p0----|-0h1----1---------1-------1-------| 
|2----------0-------0---0---0---0------0--|-2----------0-------0---0---0-----| 
|2--------3---3--------------------------0|-2--------3---3-------------------| 
|0--------------------3-------2-----------|-0--------------------3-------2~~~| 
|-----------------------------------------|----------------------------------| 

|-0------0------1-----0------3---| 
|-0h1----1------1-----1------0---| 
|-2------2------2-----0------0---| 
|-2------2------3-----2------0---| 
|-0------0------------3------2---| 
|----------------------------3---| 
	  

Search Paypal
auto scroll beats size up size down change color hide chords drawings
tab show chords e-chords YouTube Clip e-chords hide all tabs e-chords go to top tab