12-Stones

Crash

12-Stones

tabs Advanced advanced

save to print version add songbook text version e-mail correct tuner
chordsukulelecavacokeyboardtabbassdrumsharmonicaflute Guitar Pro
close

there isn't a video lesson for this song

chords

Crash

	  		Tuning: Drop C(CGCfad)
 
Verse 1
|--------------------------------------------------|
|--------------------------------------------------|
|-7---7----7---10----10-10--9---9--95---4---4------l
|--0-0--0-0--0---0-0---0-00-0---0-0---0-5--5-5-----l
|--------------------------------------------------|
|--------------------------------------------------|

Chorus
|---------------------------------------|
|-----3-3-------------------------------|
|-----2-2-5-5-5-5-----------------------|
|-0-0-0-0-5-5-5-5-3-3-3-3-5-5-5---------|
|-0-0-0-0-3-3-3-3-3-3-3-3-5-5-5---------|
|-0-0-0-0---------3-3-3-3-5-5-5-3~------|

Last Chorus
|-------------------------------------|
|-3-3-3-3-----------------------------|
|-2-2-2-2-5-5-5-5---------------------|
|-0-0-0-0-5-5-5-5-5-5-5-3-3-----------|
|-0-0-0-0-3-3-3-3-5-5-5-3-3-----------|
|-0-0-0-0---------5-5-5-3-3-----------|
pm.......

Verse 2
|---------------------------------------|
|---------6h8p6-5h6p5-6p5---------------|
|-5h7-5h7-----------------5-----5---5-7-|
|---------------------------5h7---7-----|
|---------------------------------------|
|---------------------------------------|

Bridge
|-------------------------------------|
|-------------------------------------|
|---------5-5-5-----------------------|
|-0-0-0-0-x-x-x-----------------------|
|-0-0-0-0-3-3-3-----------------------|
|-0-0-0-0-----------------------------|
		  

See also:

tabs Van Halen - Pretty Woman tabs The Strokes - Last Nite tabs Guns N' Roses - Welcome to The Jungle tabs Foo Fighters - The Pretender tabs 4 Non Blondes - What's Up? tabs Aerosmith - I Don't Want To Miss A Thing
e-chords

Other versions:

tabs Aerosmith - Crash tabs Dave Matthews Band - Crash tabs Motor Ace - Crash tabs Papa Roach - Crash tabs Fit For Rivals - Crash tabs Seether - Crash
auto scroll beats size up size down change color hide chords drawings
tab show chords e-chords YouTube Clip e-chords hide all tabs e-chords go to top tab

share