Neverstore

home > Neverstore

Undone Tab

Neverstore

Difficulty: nolevelnolevel

by IronPower4Ever

tuner correct add songbook print version text version save to e-mail
chordsukulelecavacokeyboardtabbassdrumsharmonicsflute Guitar Pro
chords

Undone

  		

Intro/bridge 

eb|---------------------------------------------------------------------------| 
Bb|---------------------------------------------------------------------------| 
Gb|---------------------------------------------------------------------------| 
Db|9-9-9-9-8-8-8-8-6-6-6-6-4-4-4-4-2-2-2-2-2-2-2-2-4-4-4-4-4-4-4-4------------| 
Ab|9-9-9-9-9-9-9-9-6-6-6-6-4-4-4-4-2-2-2-2-2-2-2-2-4-4-4-4-4-4-4-4------------| 
Eb|7-7-7-7-6-6-6-6-4-4-4-4-2-2-2-2-0-0-0-0-0-0-0-0-2-2-2-2-2-2-2-2------------| 

eb|---------------------------------------------------------------------------| 
Bb|---------------------------------------------------------------------------| 
Gb|---------------------------------------------------------------------------| 
Db|9-9---9-8-8---8-6-6---6-4-4---4-2-2-2-2-2-2-2-2-4-4-4-4-4-4-4-4------------| 
Ab|9-9---9-9-9---9-6-6---6-4-4---4-2-2-2-2-2-2-2-2-4-4-4-4-4-4-4-4------------| 
Eb|7-7---7-6-6---6-4-4---4-2-2---2-0-0-0-0-0-0-0-0-2-2-2-2-2-2-2-2------------| 

Verse 

eb|---------------------------------------------------------------------------| 
Bb|---------------------------------------------------------------------------| 
Gb|---------------------------------------------------------------------------| 
Db|------------------------------------------------------------2-2------------| 
Ab|9-9-9-9-9-9-9-9-4-4-4-4-4-4-4-4-2-2-2-2-2-2-2-2-2-2-2-2-2-2-2-2------------| 
Eb|7-7-7-7-7-7-7-7-2-2-2-2-2-2-2-2-0-0-0-0-0-0-0-0-0-0-0-0-0-0-0-0------------| 

eb|---------------------------------------------------------------------------| 
Bb|---------------------------------------------------------------------------| 
Gb|---------------------------------------------------------------------------| 
Db|------9-------8-------6-------4-----2-----2---2-----4-----4---4------------| 
Ab|9-9-9-9-9-9-9-9-6-6-6-6-4-4-4-4-2-2-2-2-2-2-2-2-4-4-4-4-4-4-4-4------------| 
Eb|7-7-7-7-6-6-6-6-4-4-4-4-2-2-2-2-0-0-0-0-0-0-0-0-2-2-2-2-2-2-2-2------------| X2 

eb|-------------------------------------------------------------------------------------| 
Bb|-------------------------------------------------------------------------------------| 
Gb|-----------------4-4-4-4-4-4-4-4-4-4-4-4-4-4-4-4-------------------------------------| 
Db|-----------------4-4-4-4-4-4-4-4-4-4-4-4-4-4-4-4---------4-4-4-4---4~--4~--4~--4-4-4-| 
Ab|-2-2-2-2-4-4-4-4-2-2-2-2-2-2-2-2-2-2-2-2-2-2-2-2-2-2-2-2-2-2-2-2---4~--4~--4~--4-4-4-| 
Eb|-0-0-0-0-2-2-2-2---------------------------------0-0-0-0-----------2~--2~--2~--2-2-2-| 

Chorus 

eb|---------------------------------------------------------------------------| 
Bb|---------------------------------------------------------------------------| 
Gb|-4----------------8-----------------6--------------------------------------| 
Db|-x----------------x-----------------x--------------------------------------| 
Ab|-2x32-------------6x16--------------4x16-----------------------------------| 
Eb|---------------------------------------------------------------------------|X2 

eb|---------------------------------------------------------------------------| 
Bb|---------------------------------------------------------------------------| 
Gb|-4-------------------------------------------------------------------------| 
Db|-4-------2x16----6------------------4--------------------------------------| 
Ab|-2x16----2-------6x16---------------4x16-----------------------------------| 
Eb|---------0-------4------------------2--------------------------------------|X2 

Bridge/Intro 

eb|---------------------------------------------------------------------------| 
Bb|---------------------------------------------------------------------------| 
Gb|---------------------------------------------------------------------------| 
Db|9-9-9-9-8-8-8-8-6-6-6-6-4-4-4-4-2-2-2-2-2-2-2-2-4-4-4-4-4-4-4-4------------| 
Ab|9-9-9-9-9-9-9-9-6-6-6-6-4-4-4-4-2-2-2-2-2-2-2-2-4-4-4-4-4-4-4-4------------| 
Eb|7-7-7-7-6-6-6-6-4-4-4-4-2-2-2-2-0-0-0-0-0-0-0-0-2-2-2-2-2-2-2-2------------| 

eb|---------------------------------------------------------------------------| 
Bb|---------------------------------------------------------------------------| 
Gb|---------------------------------------------------------------------------| 
Db|9-9---9-8-8---8-6-6---6-4-4---4-2-2-2-2-2-2-2-2-4-4-4-4-4-4-4-4------------| 
Ab|9-9---9-9-9---9-6-6---6-4-4---4-2-2-2-2-2-2-2-2-4-4-4-4-4-4-4-4------------| 
Eb|7-7---7-6-6---6-4-4---4-2-2---2-0-0-0-0-0-0-0-0-2-2-2-2-2-2-2-2------------| 

2nd Verse 

eb|---------------------------------------------------------------------------| 
Bb|---------------------------------------------------------------------------| 
Gb|---------------------------------------------------------------------------| 
Db|------------------------------------------------------------2-2------------| 
Ab|9-9-9-9-9-9-9-9-4-4-4-4-4-4-4-4-2-2-2-2-2-2-2-2-2-2-2-2-2-2-2-2------------| 
Eb|7-7-7-7-7-7-7-7-2-2-2-2-2-2-2-2-0-0-0-0-0-0-0-0-0-0-0-0-0-0-0-0------------| 

eb|---------------------------------------------------------------------------| 
Bb|---------------------------------------------------------------------------| 
Gb|---------------------------------------------------------------------------| 
Db|------9-------8-------6-------4-----2-----2---2-----4-----4---4------------| 
Ab|9-9-9-9-9-9-9-9-6-6-6-6-4-4-4-4-2-2-2-2-2-2-2-2-4-4-4-4-4-4-4-4------------| 
Eb|7-7-7-7-6-6-6-6-4-4-4-4-2-2-2-2-0-0-0-0-0-0-0-0-2-2-2-2-2-2-2-2------------|X2 

eb|-------------------------------------------------------------------| 
Bb|-------------------------------------------------------------------| 
Gb|-----------------4-4-4-4-4-4-4-4-4-4-4-4-4-4-4-4-------------------| 
Db|-----------------4-4-4-4-4-4-4-4-4-4-4-4-4-4-4-4---------4-4-4-4---| 
Ab|-2-2-2-2-4-4-4-4-2-2-2-2-2-2-2-2-2-2-2-2-2-2-2-2-2-2-2-2-2-2-2-2---| 
Eb|-0-0-0-0-2-2-2-2---------------------------------0-0-0-0-----------| 

eb|-----------------------------------| 
Bb|-----------------------------------| 
Gb|-----------------------------------| 
Db|4----------------------------------| 
Ab|4-4-4-4-4-4-4-4-4-4-4-4-4-4-4-4----| 
Eb|2-2-2-2-2-2-2-2-2-2-2-2-2-2-2-2----| 



Chorus 

eb|---------------------------------------------------------------------------| 
Bb|---------------------------------------------------------------------------| 
Gb|-4----------------8-----------------6--------------------------------------| 
Db|-x----------------x-----------------x--------------------------------------| 
Ab|-2x32-------------6x16--------------4x16-----------------------------------| 
Eb|---------------------------------------------------------------------------|X2 

eb|---------------------------------------------------------------------------| 
Bb|---------------------------------------------------------------------------| 
Gb|-4-------------------------------------------------------------------------| 
Db|-4-------2x16----6------------------4--------------------------------------| 
Ab|-2x16----2-------6x16---------------4x16-----------------------------------| 
Eb|---------0-------4------------------2--------------------------------------|x2 

Clean bridge 

eb|----------0~---------------------------------------------------------------| 
Bb|-4-4--2-4---4--2-4-4-------------------------------------------------------| 
Gb|---------------------------------------------------------------------------| 
Db|---------------------------------------------------------------------------| 
Ab|---------------------------------------------------------------------------| 
Eb|---------------------------------------------------------------------------|x12 

overdrove octives bridge part  

eb|---------------------------------------------------------------------------| 
Bb|---------------------------------------------------------------------------| 
Gb|-4-4-4-4-4-6-4-4----8-8-8-8-8-9-8-6--6-6-6-6-8-6-4-------------------------| 
Db|-x-x-x-x-x-x-x-x----x-x-x-x-x-x-x-x--x-x-x-x-x-x-x-------------------------| 
Ab|-2-2-2-2-2-4-2-2----6-6-6-6-6-7-6-4--4-4-4-4-6-4-2-------------------------| 
Eb|---------------------------------------------------------------------------|x2 

eb|(----------------)----------------------------------------------------------| 
Bb|(----------------)----------------------------------------------------------| 
Gb|(4-4-4-4-4-6-4-4-)---8-8-8-8-8-9-8-6--6-6-6-6-8-6-4-------------------------| 
Db|(x-x-x-x-x-x-x-x-)X2-x-x-x-x-x-x-x-x--x-x-x-x-x-x-x-------------------------| 
Ab|(2-2-2-2-2-4-2-2-)---6-6-6-6-6-7-6-4--4-4-4-4-6-4-2-------------------------| 
Eb|(----------------)----------------------------------------------------------|x2 

eb|---------------------------------------------------------------------------| 
Bb|---------------------------------------------------------------------------| 
Gb|---------------------------------------------------------------------------| 
Db|-9-9-9-9-8-8-8-8-xxxxxxxx--------------------------------------------------| 
Ab|-9-9-9-9-9-9-9-9-xxxxxxxx--------------------------------------------------| 
Eb|-7-7-7-7-6-6-6-6-xxxxxxxx--------------------------------------------------| 

Chorus 

eb|---------------------------------------------------------------------------| 
Bb|---------------------------------------------------------------------------| 
Gb|-4----------------8-----------------6--------------------------------------| 
Db|-x----------------x-----------------x--------------------------------------| 
Ab|-2x32-------------6x16--------------4x16-----------------------------------| 
Eb|---------------------------------------------------------------------------|X2 

eb|---------------------------------------------------------------------------| 
Bb|---------------------------------------------------------------------------| 
Gb|-4-------------------------------------------------------------------------| 
Db|-4-------2x16----6------------------4--------------------------------------| 
Ab|-2x16----2-------6x16---------------4x16-----------------------------------| 
Eb|---------0-------4------------------2--------------------------------------|X2 

Outro 

eb|---------------------------------------------------------------------------| 
Bb|---------------------------------------------------------------------------| 
Gb|---------------------------------------------------------------------------| 
Db|9-9-9-9-8-8-8-8-6-6-6-6-4-4-4-4-2---2---2---2---4---4---4---4--------------| 
Ab|9-9-9-9-9-9-9-9-6-6-6-6-4-4-4-4-2---2---2---2---4---4---4---4--------------| 
Eb|7-7-7-7-6-6-6-6-4-4-4-4-2-2-2-2-0---0---0---0---2---2---2---2--------------| 

eb|---------------------------------------------------------------------------| 
Bb|---------------------------------------------------------------------------| 
Gb|---------------------------------------------------------------------------| 
Db|9~-------8~-------6~-------4~-------2~-------------------------------------| 
Ab|9~-------9~-------6~-------4~-------2~-------------------------------------| 
Eb|7~-------6~-------4~-------2~-------0~-------------------------------------| 


************************************ 

| /   slide up 
| \   slide down 
| h   hammer-on 
| p   pull-off 
| ~   vibrato 
| +   harmonic 
| x   Mute note 
| b   Bend 
| pb  Pre-bend 
| br  Bend release 
| pbr Pre-bend release 
| brb Bend release bend 

************************************ 
	  

Search Paypal
auto scroll beats size up size down change color hide chords drawings
tab show chords e-chords YouTube Clip e-chords hide all tabs e-chords go to top tab