Five Finger Death Punch

home > Five Finger Death ...

Undone Tab

Five Finger Death Punch

Difficulty: nolevelnolevel

by robepoiel

tuner correct add songbook print version text version save to e-mail
chordsukulelecavacokeyboardtabbassdrumsharmonicsflute Guitar Pro
chords

Undone

Key:  Am More
Undone Key EmEm
Undone Key FmFm
Undone Key F#mF#m
Undone Key GmGm(one step down)
Undone Key G#mG#m(half step down)
Undone Key AmAm(original key)
Undone Key A#mA#m(half step up)
Undone Key BmBm(one step up)
Undone Key CmCm
Undone Key C#mC#m
Undone Key DmDm
Undone Key D#mD#m
  		Tunning: B standard (6)bEADF?B(1) 


Backing track 1:                                             Backing track 2: 

b |--------------|     |------------|              |-----------------------------------------------------| 
F#|-------12-----|     |------------|              |-------12-----------10-----------12-----------12-----| 
D |-----12--12---| x3  |-12-12-11---|              |-----12--12-------12--12-------12--12-------12--12---| 
A |---12------12-|     |---------12-|              |---12------12---12------12---12-----12----12------12-| 
E |-10-----------|     |------------|              |-10-----------10-----------10-----------10-----------| 
B |--------------|     |------------|              |-----------------------------------------------------| 

Verse (1):                                              Verse (2): 

|------------------------------------------------------|  |----------------10----------------------------| 
|---12-12---13-13---12-10-12-10------10-12--12-10------|  |---12-12--13-13---13-12-13--12----------------| 
|-12----------------------------12-12------------12-11-|  |-12-----------------------------12-12-11-9----| 
|------------------------------------------------------|  |-------------------------------------------12-| 
|------------------------------------------------------|  |----------------------------------------------| 
|------------------------------------------------------|  |----------------------------------------------| 

Verse (3):  

|---------------10-10----------------------------------| 
|---12-12--13-13-----13-12-13-12--10--10-12--10--------| 
|-12--------------------------------12---------12-11-9-| 
|------------------------------------------------------| 
|------------------------------------------------------| 
|------------------------------------------------------| 

Chorus: 

|--------------------------------------------------------------------| 
|--------------------------------------------------------------------| 
|--------------------------------------------------------------------| 
|--------------------------------------------------------------9-7---| 
|-7-9-10b--7-9-10b--7-9-10-12-10-9-10--7-9-10b--7-9-10b--7-9-10---10-| 
|--------------------------------------------------------------------| 

|---------------------------------------------------------------------------| 
|---------------------------------------------------------------------------| 
|---------------------------------------------------------------------------| 
|------------------------------------------------9-------------9-10-12-10-9-| 
|-7-9-10b--7-9-10b--7-9-10-12-10-9-10---*9-10-12--12-10-9-10-12-------------| 
|---------------------------------------------------------------------------| 
                                         * How do I undo what's done? 

|-----------------------------------------------------------------------------| 
|-----------------------------------------------------------------------------| 
|--------------------------------------0--------------------------------------| 
|-------------------------------------2-------------------------------------2-| 
|-------------2----------2-----------2--------------2----------2-----------2--| 
|-0-0-0-0-0-0-0--0-0-0-0-0--0-0-0-0-0---0-0-0-0-0-0-0--0-0-0-0-0--0-0-0-0-0---| 
PM-----------    -------    -------     ------------   -------    ------- 

Fill: 

|-------------------------------------------------------| 
|-------------------------------------------------------| 
|-12----11----9----------------12--11/12\11---9---------| 
|-----------------12--10-9----------------------12-10-9-| 
|-------------------------------------------------------| 
|-------------------------------------------------------| 



Song order: 

1.- Verse: 
 - Backing tracks (1, 2, 1*, 2, 1, 2) 
 - Verse (starts here *) 1, 2 

2.- Chorus 

3.- Verse: 
 - Backing tracks (2*, 2, 1, 2, 1, 2) 
 - Verse  1, 3, 1, 2 

4.- Chorus 

5.- Bridge: 
 - Backing tracks (1, 2) 
 - Fill 

6.- Chorus 

7.- Outro: Verse (1, 2) 
	  

Full key step upFull key step up
Half key step upHalf key step up
Half key step downHalf key step down
Full key step downFull key step down
Search Paypal
auto scroll beats size up size down change color hide chords drawings
tab show chords e-chords YouTube Clip e-chords hide all tabs e-chords go to top tab