Weezer

home > Weezer

Undone (Ver.3) Tab

Weezer

Difficulty: nolevelnolevel

tuner correct add songbook print version text version save to e-mail
chordsukulelecavacokeyboardtabbassdrumsharmonicsflute Guitar Pro
chords

Undone (Ver.3)

  		Regular Tuning.  My first tab on site.  Enjoy.  Fifoon rules!   
Jack 
 
Intro 
e------------------------------------------------------------------------------------ 
B--------------0-------------0------------0--------------0--------------------------- 
G ---------3--------------3------------3--------------3------------------------------ 
D------0--------------0----------- 4--------------0---------------------------------- 
A-------------------3-----------5---------------3---------------------------------- 
E---3------------------------------------------------------------------------------- 
 
Verse 
e------------------------------------------------------------------------------------ 
B----------------------------------------------------------------------------------- 
G ----------------------------------------------------------------------------------- 
D---------------------5--5--5--5---7--7--7--7----5--5--5--5------------------------ 
A------5--5---5--5----3--3--3--3---5--5--5--5----3--3--3--3------------------------- 
E------3--3---3--3------------------------------------------------------------------ 
      ------------------------- p.m.------------------------------------------------- 
 
Light Distortion, Chorus 
e------------------------------------------------------------------------------------ 
B----------------------------------------------------------------------------------- 
G ----------------------------------------------------------------------------------- 
D---------------------5--5--5--5---7--7--7--7----5--5--5--5------------------------ 
A------5--5---5--5----3--3--3--3---5--5--5--5----3--3--3--3------------------------- 
E------3--3---3--3------------------------------------------------------------------ 
 
Song Order 
Intro 6 to 7 times (as long as you want) 
Verse 3 to 4 times 
Chorus 4 times 
Back to intro 
Verse Chorus 
 
I know I?m missing? a few parts but oh well.  I think I covered the main drift of the song,
though the order?s a bit mixed up.  Any corrections post them on the site.
My first tab remember. 
 
                     ----            ---- 
                         \          / 
                          \        /  
                           \  /\  / 
                            \/  \/ 
 

	  

Search Paypal
auto scroll beats size up size down change color hide chords drawings
tab show chords e-chords YouTube Clip e-chords hide all tabs e-chords go to top tab