Kutless

We Fall Down

Kutless

tabs Beginner beginner

by  WOODHILLSTUDIO

save to print version add songbook text version e-mail correct tuner
chordsukulelecavacokeyboardtabbassdrumsharmonicaflute Guitar Pro
close

there isn't a video lesson for this song

chords

We Fall Down

Year: 2005 - Album: Strong Tower

	  		WE FALL DOWN by Kutless  
  
Submitted by Christine Wood  
  
e|---1---4---2---1---1-------1---2---|X1    
B|-2---2---------------2---4---------|    
G|-----------------------------------|    
D|-----------------------------------|    
A|-----------------------------------|    
E|-----------------------------------|    
  
e|-1---4---2---1---1-------1---2-----|X3    
B|---2---------------2---4-----------|    
G|-----------------------------------|    
D|-----------------------------------|    
A|-----------------------------------|    
E|-----------------------------------|    
  
F#                         C#       F#                                    
 We fall down we lay our crowns     
          B         C#  
 at the feet of Jesus    
         F#                      C#          F#                                  
 The greatness of his mercy and love     
          B        C#         
at the feet of Jesus    
  
                     B   F#    C#    
  And we cry Holy Holy Holy    
              B      F#    C#                                        
  We cry Holy Holy Holy    
              B     F#    C#            
  We cry Holy Holy Holy    
           B    F#    C#                     
  Is the Lamb    
  


		  

Full key step upFull key step up
Half key step upHalf key step up
Half key step downHalf key step down
Full key step downFull key step down
hide glossary

See also:

tabs Darrell Evans - Trading My Sorrows (ver. 2) tabs Hillsong - Hosana Solo Dagdad tabs Bleach - Chu-bura tabs Brad Paisley - The Old Rugged Cross (ver. 2) tabs FFH - every now and then tabs 12-Stones - Photograph
e-chords

Other versions:

tabs Kutless - We Fall Down
auto scroll beats size up size down change color hide chords drawings
tab show chords e-chords YouTube Clip e-chords hide all tabs e-chords go to top tab

share